Song name
# A B C D E F G H I J K L M N O P Q R S T U V W X Y Z

Jeff Beck - Hammerhead tab

This tabb will get you until beck would do his solo. Hope this is good enough for you. I 
have been listening over and over the song sat with my guitar picking out the tabb and 
writing it down. I think it sounds similar. but feedback would be helpful


b- Bend and release

e|--------------------------------|--------------------------------|
B|--------------------------------|--------------------------------|
G|--------------5-----------------|--------------------------------|
D|0-------5--7-----7--5--4--------|------------------3b------------|
A|--------------------------3--5--|---3--5--3-----3----------------|
E|--------------------------------|5-----------5-------------------|

e|--------------------------------|--------------------------------|
B|--------------------------------|--------------------------------|
G|--------------5-----------------|--------------------------------|
D|0-------5--7-----7--5--4--------|------------------3b------------|
A|--------------------------3--5--|---3--5--3-----3----------------|
E|--------------------------------|5-----------5-------------------|

e|--------------------------------|--------------------------------|
B|--------------------------------|--------------------------------|
G|--------------5-----------------|--------------------------------|
D|0-------5--7-----7--5--4--------|------------------3b------------|
A|--------------------------3--5--|---3--5--3-----3----------------|
E|--------------------------------|5-----------5-------------------|

e|--------------------------------|--------------------------------|
B|--------------------------------|--------------------------------|
G|--------------5-----------------|--------------------------------|
D|0-------5--7-----7--5--4--------|------------------3b------------|
A|--------------------------3--5--|---3--5--3-----3----------------|
E|--------------------------------|5-----------5-------------------|

e|--------------------------------|--------------------------------|
B|--------------------------------|--------------------------------|
G|--------------5-----------------|--------------------------------|
D|0-------5--7-----7--5--4--------|------------------3b------------|
A|--------------------------3--5--|---3--5--3-----3----------------|
E|--------------------------------|5-----------5-------------------|

e|----------------------------------|------------------------------|
B|---5-----------------5------------|------------------------------|
G|7-----5--4--5-----7-----5-----5---|------------------------------|
D|---------------7-----------9-----7|------------------------------|
A|----------------------------------|------------------------------|
E|----------------------------------|------------------------------|

e|--------------------------------|--------------------------------|
B|--------------------------------|--------------------------------|
G|--------------5-----------------|--------------------------------|
D|0-------5--7-----7--5--4--------|------------------3b------------|
A|--------------------------3--5--|---3--5--3-----3----------------|
E|--------------------------------|5-----------5-------------------|

e|--------------------------------|--------------------------------|
B|--------------------------------|--------------------------------|
G|--------------5-----------------|--------------------------------|
D|0-------5--7-----7--5--4--------|------------------3b------------|
A|--------------------------3--5--|---3--5--3-----3----------------|
E|--------------------------------|5-----------5-------------------|

e|--------------------------------|--------------------------------|
B|--------------------------------|--------------------------------|
G|--------------5-----------------|--------------------------------|
D|0-------5--7-----7--5--4--------|------------------3b------------|
A|--------------------------3--5--|---3--5--3-----3----------------|
E|--------------------------------|5-----------5-------------------|

e|---------------------------|--------------------------------|
B|3----5---------------------|6--------------8----------------|
G|------5----4----5----------|-----9----6---------10---9---7--|
D|---------------------7-(x2)|--------------------------------|
A|---------------------------|--------------------------------|
E|---------------------------|--------------------------------|

e|--------------------------------|--------------------------------|
B|--------------------------------|--------------------------------|
G|--------------5-----------------|--------------------------------|
D|0-------5--7-----7--5--4--------|------------------3b------------|
A|--------------------------3--5--|---3--5--3-----3----------------|
E|--------------------------------|5-----------5-------------------|

e|--------------------------------|--------------------------------|
B|--------------------------------|--------------------------------|
G|--------------5-----------------|--------------------------------|
D|0-------5--7-----7--5--4--------|------------------3b------------|
A|--------------------------3--5--|---3--5--3-----3----------------|
E|--------------------------------|5-----------5-------------------|

e|--------------------------------|--------------------------------|
B|--------------------------------|--------------------------------|
G|--------------5-----------------|--------------------------------|
D|0-------5--7-----7--5--4--------|------------------3b------------|
A|--------------------------3--5--|---3--5--3-----3----------------|
E|--------------------------------|5-----------5-------------------|
Tap to rate this tab
# A B C D E F G H I J K L M N O P Q R S T U V W X Y Z