Song name
# A B C D E F G H I J K L M N O P Q R S T U V W X Y Z

Jeff Beck - Scatterbrain Live tab

Didn't finish the keyboard solo
as it's ridiculous and this has just been
sitting on my comp so.... Here Ya GO!

Ill probably upload a cover at my youtube
channel: user: xzen2


E|-------------------------------------------------|
B|-------------------------------------------------|
G|-5-3-0--5-3-0--5-3-0--5-3-0----------------------|
D|------5------5------5------5---------------------|
A|-------------------------------------------------|
E|-------------------------------------------------|



E|-------------------------------------------------|
B|-55-3-0-55-3-0-55-3-0-55-3-0---------------------|
G|-------------------------------------------------|
D|-------------------------------------------------|
A|-------------------------------------------------|
E|-------------------------------------------------|



E|-------------------------------------------------|
B|-------------------------------------------------|
G|-5b-----3---2b3b2--0-----------------------------|
D|-------------------------------------------------|
A|-------------------------------------------------|
E|-------------------------------------------------|



E|-------------------------------------------------|
B|-------------------------------------------------|
G|-------0-3-0---0-5-3-0-5-3-0-5-3-0-5-3-0-5-3-0---|
D|-0-3-5-------5-----------------------------------|
A|-------------------------------------------------|
E|-------------------------------------------------|



E|-------------------------------------------------|
B|-------------------------------------------------|
G|-5b7b5-3-0---------------------------------------|
D|-----------5-3-0-------1h3-----------------------|
A|-----------------3-1-----------------------------|
E|---------------------3---------------------------|



E|-------------------------------------------------|
B|---------3-3h5p3---------------10-8-8------------|
G|---------3h4h5p4---------------9--9-7------------|
D|---------3-3h5p3---------------10-8-8------------|
A|-------------------------------------------------|
E|-0-1-2-3-----------3h5b6b5p3---------------------|



E|-------------------------------------------------|
B|---------6-6h8p6-------------------14-13-11------|
G|---------6h7h8p7-------------------12-12-10------|
D|---------6-6h8p6-----------/11-----14-13-12------|
A|-----------------8b9b8-5-------------------------|
E|-3-4-5-6-----------------6-----/6----------------|



E|------------------------------10-----------------|
B|---------6--6-6--6--6---9--10-10---9-12----------|
G|---------6--8p6--6--6---9--10-10---9-9-----------|
D|---------6--6-6--6--6---9--10------9-9-----------|
A|-------------------------------------------------|
E|-3-4-5-6---6----6--6---7--9------10--------------|



E|-10-10--10-10-12--10-10--10-10-10----------------|
B|-10-10--10-10-10--10-10--10-10-10--15-12-9-6-----|
G|-10-10--10-10-10--10-10--10-10-10--15-12-9-6-----|
D|-----------------------------------15-12-9-6-----|
A|-------------------------------------------------|
E|-------------------------------------------------|



E|-------------------------------------------------|
B|-------------------------------------------------|
G|-----6-8b10b8-6---6-6-6-6-8-8-9-8--8---8---------|
D|-6-8--------------6-6-6-6-7-7-8-7--7-9-7-9-------|
A|-------------------------------------------------|
E|-------------------------------------------------|



E|-----/10-----------------------------------------|
B|---7------7/9/7----------------------------------|
G|---7------------9-7---7-----7------7-----7-------|
D|-7-7----------------9---/12---/12---/12---/12----|
A|-------------------------------------------------|
E|-------------------------------------------------|



E|---7--------7---7---7---9-12-14-12-9-12-14-12-9--|
B|-----9-10-9---9---9------------------------------|
G|-------------------------------------------------|
D|-9-----------------------------------------------|
A|-------------------------------------------------|
E|-------------------------------------------------|



E|-------------------------------------------------|
B|-------------------------------------------------|
G|-5b7b5-3-5-3---3---------------------------------|
D|-------------5---5-3-----------------------------|
A|---------------------5-3/1-----------------------|
E|----------------------------3p1------------------|



E|-------------------------------------------------|
B|-------------------------------------------------|
G|-------------------------------------------------|
D|-5-5-6-6-7-7-8-8-9-9-10-10-11-11-12-12-----------|
A|-------------------------------------------------|
E|-------------------------------------------------|
  ^                                     ^
  |--------------pick open D------------|



E|-21b24b21-----18--18-----------------------------|
B|---------18-21--20--18---------------------------|
G|----------------------20-18---18--18-------------|
D|----------------------------20--18----18--18-20--|
A|------------------------------------20--18-------|
E|-------------------------------------------------|




E|-18-18-------18-18------18-21b23b21-18-----------|
B|-------21b23------21b23--------------------------|
G|---------------------------------------8-9-7-9-8-|
D|---------------------------------------8-8-8-8-8-|
A|-------------------------------------------------|
E|-------------------------------------------------|



E|-------------------------------------------------|
B|-------------------------------------------------|
G|-12b14-12-11---------------------------11--11----|
D|-------------14-12-14b16b14-12---12--12--14--14--|
A|-------------------------------14--14------------|
E|-------------------------------------------------|



E|-------------------------------------------------|
B|-------------------------------------------------|
G|-11b13-11b13-------------------------------------|
D|------------14-----------------------------------|
A|-------------------------------------------------|
E|-------------------------------------------------|


E|--------12--------12--------12-------------------|
B|----------15-12-----15-12-----15-12---etc--15b17-|
G|--12b13--------13--------13--------13------------|
D|-------------------------------------------------|
A|-------------------------------------------------|
E|-------------------------------------------------|



E|-17b19---17-15-17---15---------------------------|
B|-----------------18----18b20-15-18--18b20b18-----|
G|-------------------------------------------------|
D|-------------------------------------------------|
A|-------------------------------------------------|
E|-------------------------------------------------|



E|-------------------------------------------------|
B|-15-----------------15---12---9---6--------------|
G|---17-16---17-16----15---12---9---6--------------|
D|--------17----------15---12---9---6--------------|
A|-------------------------------------------------|
E|-------------------------------------------------|



Guitar during keyboard solo:

E|-------------------------------------------------|
B|-3---3---4---4---7---7---9---0---0---------------|
G|-3---3---4---4---7---7---9---0---0---------------|
D|-3---3---4---4---7---7---9---0---0---------------|
A|-------------------------------------------------|
E|-------------------------------------------------|



Keyboard solo:




E|-------------------------------------------------|
B|-------------------------------------------------|
G|-0-4-1-------------------------------------------|
D|---0---2---6h8p6---7h9p7---10h12p10-12h14p12--12-|
A|-----2------------------------14-------16--------|
E|-1-----4-----------------------------------------|



E|--------------------------------------------------|
B|--------------------------------------------------|
G|----12-14-12----12--------------------------5p3p0-|
D|-12----------14----14-12-------3h5p3--5p3p0-------|
A|-------------------------14-12--------------------|
E|--------------------------------------------------|



E|-----------------------------------------7------7-|
B|---------6-----------------------------9---9-10---|
G|-----6-7-------6-7-8-7-6-----------6-9------------|
D|-8-8-------8-8-----------8-6-9-6-7----------------|
A|--------------------------------------------------|
E|--------------------------------------------------|



E|-------------------------14-12-------------------|
B|-9-7h9p7-----------12-14-------14-12-11-10-12----|
G|---------9-6-6--------------------------------11-|
D|-------------------------------------------------|
A|-------------------------------------------------|
E|-------------------------------------------------|



E|-----------------------------------10------------|
B|-12---12------------------10----10----13---------|
G|----9-------12---12-11-------11------------------|
D|---------12----10------12------------------------|
A|-------------------------------------------------|
E|-------------------------------------------------|



E|------------12-13-15-16-12-----------------------|
B|---------13----------------15--------------------|
G|-9-10-12----------------------14-13--------------|
D|------------------------------------14-12--------|
A|-------------------------------------------------|
E|-------------------------------------------------|



E|-------------------------------------------------|
B|-------------------------------------------------|
G|-13h14p13-------13-------13h14p13-------13-------|
D|----------14-12----12-14----------14-12----12----|
A|-------------------------------------------------|
E|-------------------------------------------------|



E|-------------------------------------------------|
B|----12-13-12-------------------------------------|
G|-12----------12----------------------------------|
D|----------------14-10-12-14-12-------------------|
A|-------------------------------13-14----12-------|
E|-------------------------------------15----13----|



E|-------------------------------------------------|
B|-------------------------------------------------|
G|-------------------------------------------------|
D|-------------------------------------------------|
A|-------------------------------------------------|
E|-------------------------------------------------|


E|-------7----------------8----------------8-------|
B|-----9---9-----------10---10----------10---------|
G|---9-------9------10---------10----10------------|
D|-9-----------9-10---------------10---------------|
A|-------------------------------------------------|
E|-------------------------------------------------|


E|-10-10-10-10-10-11-12----------------------------|
B|-------------------------------------------------|
G|----------------------9-9------------------------|
D|-------------------------------------------------|
A|-------------------------------------------------|
E|-------------------------------------------------|


E|-------------------------------------------------|
B|-------------------------------------------------|
G|-------------------------------------------------|
D|-------------------------------------------------|
A|-------------------------------------------------|
E|-------------------------------------------------|
Tap to rate this tab
# A B C D E F G H I J K L M N O P Q R S T U V W X Y Z