Song name
# A B C D E F G H I J K L M N O P Q R S T U V W X Y Z

Jeff Beck - Mna Na Heireann tab

------------------------------------------------------------------------------
                          Mná na hÉireann – Jeff Beck
------------------------------------------------------------------------------

Tabbed by: TheRockChanal1
E-mail: keith-miller@web.de

Tuning:Standard: EADGBe

This is meant to be the crossroads version.


d       Dip the Whammybar
*       Hit note only once an use tremolo
w       Use whammybar
t       right hand taping


  Jeff Beck
e|---------------------------------------------------------------------------|
B|----------15-15h17-15-14-------------------------------------15-17p15p14h15|
G|----11-12-----------------------11-12~-14-11-12--------11-12---------------|
D|-14----------------------14--14-----------------14--14---------------------|
A|---------------------------------------------------------------------------|
E|---------------------------------------------------------------------------|

e|---------------------------------------------------------------------------|
B|-h17-15-14----------------------------------------------15-17-19-17-15-----|
G|------------------11-12~-11-12-14-12----11h14------------------------------|
D|-----------14--14--------------------14-------12--12-12--------------------|
A|---------------------------------------------------------------------------|
E|---------------------------------------------------------------------------|
                                               w
e|---------------------------------------------------------------------------|
B|-------------------------15-17-19-17-15-14---------------------------------|
G|-16w14r16----14-12-11----------------------14-b16~-------------------------|
D|----------------------14--------------------------14-16-14~-12-12----------|
A|---------------------------------------------------------------12----------|
E|---------------------------------------------------------------------------|
                                                       w
e|---------------------------------------------------------------------------|
B|---------------------------------------------------------------------------|
G|-------0-----------0-----------0----------0--------*d12-12\/\/14-----------|
D|-----4---4-----4-----4-------4---4----4-----4------------------------------|
A|---2-------2-----2-----2---2-------2----2-----2----------------------------|
E|-0~~~~~~~~~~~0~~~~~~~~~~~0~~~~~~~~~~-0~~~~~~~~~~---------------------------|

From now on the violin takes the solo part and Jeff starts to play only chords.
I tabed the violin-part for guitar and left the chords out.

  VIOLIN-PART
e|---------------------------------------------------------------------------|
B|----------15-15~~--17~17-15-14----------------------------------15-15~-17--|
G|----11-12----------------------------11-12~14-11~12-------11-12------------|
D|-14----------------------------14-14----------------14-14------------------|
A|---------------------------------------------------------------------------|
E|---------------------------------------------------------------------------|

e|---------------------------------------------------------------------------|
B|-14h15h17-15w14---------------------------------------------------15-17-19-|
G|-----------------------11-9h11/12--12\11/12-14-12----11-14-----------------|
D|----------------14--14----------------------------14--------12-12----------|
A|---------------------------------------------------------------------------|
E|---------------------------------------------------------------------------|






e|---------------------------------------------------------------------------|
B|-17~p15h17p15-----------------------------15-17-19-17-15h17p15-14----------|
G|-----------------16-14-16-16--14-12-11----------------------------14-16-16/|
D|---------------------------------------14----------------------------------|
A|---------------------------------------------------------------------------|
E|---------------------------------------------------------------------------|

e|---------------------------------------------------------------------------|
B|--------------------------------------------14-15-14-12-14----12-----------|
G|-----------------------------------------------------------12--------------|
D|-14h16p14-14h16p14h16p14-16p14h16p14---------------------------------------|
A|-------------------------------------14/16---------------------------------|
E|---------------------------------------------------------------------------|

e|---------------------------------------------------------------------------|
B|-She plays  very fast scales and notes that a too high for the guitar-so---|
G|---------------------------------------------------------------------------|
D|-You may want to improvise a bit or just play the chords.------------------|
A|---------------------------------------------------------------------------|
E|---------------------------------------------------------------------------|

Jeff takes over the lead part now
JEFF BECK
e|---------------------------------------------------------------------------|
B|---------------------------------------------------------------------------|
G|-14b16----11-12-12-12-11-12-14p11-------11-12-12-12-11-12--12p11-12b14-----|
D|--------14------------------------14-14------------------------------------|
A|---------------------------------------------------------------------------|
E|---------------------------------------------------------------------------|
                        /--little bit faster scale---\
e|---------------------------------------------------------------------------|
B|-------------------------------------------12--15-17-17-17b19~-17-15-17----|
G|-br12p11-12p11-----------------12-------12---------------------------------|
D|---------------14--------12-14----14-12------------------------------------|
A|-------------------12-14---------------------------------------------------|
E|---------------------------------------------------------------------------|

e|---------------------------------------------------------------------------|
B|-15p14-15~-14p13h14-15--14p12h14p12----------------------------------------|
G|------------------------------------14p12-----11-12-12-12p11h12------------|
D|-------------------------------------------14------------------------------|
A|---------------------------------------------------------------------------|
E|---------------------------------------------------------------------------|

e|---------------------------------------------------------------------------|
B|----------------------------------------15/17/19---------------------------|
G|-12p11-14~~-12----11h14--------------14--------------------11-9-7----------|
D|---------------14-------12--12-14/16------------------------------9-7------|
A|---------------------------------------------------------------------------|
E|---------------------------------------------------------------------------|

e|-7b9-7-5-------------------------------------------------------------------|
B|---------7-5---------------------------------------------------------------|
G|-------------6-4-----------------------------------------------------------|
D|-----------------7p5-------------------------------------------------------|
A|---------------------5h7---------------------------------------------------|
E|---------------------------------------------------------------------------|

e|---------------------------------------------------------------------------|
B|-7-10-7h10t11--7-8~7------------------------------15-17-15-14--------------|
G|---------------------9p7-----9-7-6-9-7~~----11-12--------------------------|
D|-------------------------9p7-------------14-------------------14-----------|
A|---------------------------------------------------------------------------|
E|---------------------------------------------------------------------------|





e|---------------------------------------------------------------------------|
B|----------15-17-15-14------------------------------------------------------|
G|----11-12-------------------11-12~~--14~-11~-*12\9~~~----------------------|
D|-14-------------------14-14------------------------------------------------|
A|---------------------------------------------------------------------------|
E|---------------------------------------------------------------------------|




************************************

| /   slide up
| \   slide down
| h   hammer-on
| p   pull-off
| ~   vibrato
| +   harmonic
| x   Mute note
| b   Bend
| pb  Pre-bend
| br  Bend release
| pbr Pre-bend release
| brb Bend release bend

************************************

Tap to rate this tab
 
# A B C D E F G H I J K L M N O P Q R S T U V W X Y Z