Song name
# A B C D E F G H I J K L M N O P Q R S T U V W X Y Z

Jeff Buckley - Lover You Shouldve tab

This is the live intro of "Lover, You Should've Come Over" on the "Live in Chicago"-DVD.
I find the intro very mesmerizing - and to my surprise no one had yet tabbed it. Listen
to the intro and find the rythm.

Since there already are perfect versions of the whole song on this site,
I see no need to tab the full song. Feel free to comment.

Transcribed by GuitarEspen.

Standard Tuning

E|--0-----0---0---0---0----0---0---0---0----------------------------------0--3--|
B|-10----10--10--10--10---10--10--10--10--5--5--5--5--5--7--7----7--7--5--5--5--|
G|-11----11--11--11--12---12--12--12--11--6--6--6--6--6--7--7----7--7--6--4--4--|
D|--0-----0---0---0---0----0---0---0---0--0--0--0--0--0--0--0----0--0--0--5--5--|
A|------------------------------------------------------------------------------|
E|------------------------------------------------------------------------------|

E|-3--3--0--0--0--0--0--0--0--0--0--0--0--0--0--0--0--0--0--0--0--0--0--0--0--0-|
B|-5--5--5--3--3--3--3--3--3--3--3--3--3--3--3--3--3--0--0--0--0--0--0--0--0--0-|
G|-4--4--4--4--4--4--4--4--4--4--4--4--4--4--4--4--4--0--0--0--0--0--0--0--0--0-|
D|-5--5--5--5--5--5--5--4--4--4--4--4--4--4--4--4--4--2--2--2--2--2--2--2--2--2-|
A|-------------------------------------5--5--5--5--5--4--4--4--4--4--4--4--4--4-|
E|------------------------------------------------------------------------------|

E|-------------3--3--3--0--3--3--3--3--3--2--2--2--2--3--3--3--3----------------|
B|---3----3----3--3--3--3--3--3--3--3--3--3--3--3--3--3--3--3--3-------5--5--5--|
G|---3----3----3--3--3--3--0--0--0--0--0--2--2--2--2--2--0--0--0-------5--5--5--|
D|---0----0----0--0--0--0--0--0--0--0--0--0--0--0--0--0--0--0--0-------4--4--4--|
A|-------------------------2--2--2--2--2-----------------2--2--2----------------|
E|-2----2----2-------------3--3--3--3--3-----------------3--3--3--3--5----------|

E|---------------------------------------------------------0--0--0--0-0--0-|
B|---7--7-----7--7-----7--7---------------------------7----7--7--7--7/5--5-|
G|---7--7-----6--6-----7--7-------------------------6------6--6--6--6/4--4-|
D|---7--7-----8--8-----9--9-------7-7h9p7------5/7---------7--7--7--7/5--5-|
A|----------------------------7h9---------9-7------------------------------|
E|-5-------6--------7------------------------------------------------------|

			   and the song begins..
E|-0--0--0--0--0--0--0--0-|-0--2--2--2--0--0--2--2--2--|
B|-5--5--5--5--5--5--5--5-|-2--3--3--3--2--2--3--3--3--|
G|-4--4--4--4--4--4--4--4-|-3--2--2--2--3--3--2--2--2--|
D|-5--5--5--5--5--5--5--5-|-0--0--0--0--0--0--0--0--0--|
A|------------------------|----------------------------|
E|------------------------|----------------------------|
Tap to rate this tab
 
# A B C D E F G H I J K L M N O P Q R S T U V W X Y Z