Song name
# A B C D E F G H I J K L M N O P Q R S T U V W X Y Z

Jeff Buckley - So Real tab

This is the introduction, verse and chorus to "So Real" by Jeff Buckley/Michael Tighe; 
not the whole song since it lacks the end part, but most of it.

Fret numbers in brackets are optionally played.

E|----------------------------------------------------------------------------|
B|----------------------------------------------------------------------------|
G|14/17-17-17-------------14----15-15-15-15-15-15-15-12-12-12-14-14-14-14-14--|
D|12/15-15-15-15-15-14-12-----------------------------------------------------|(0)(0)(0)(0)(0)
A|------------17-17-0--0-----13-13-13-13-13-13-13-13-12-12-12-12-12-12-12-12--|
E|----------------------------------------------------------------------------|

E|---------------------------------||
B|---------------------------------||
G|---------------------------------||
D|---------------------------------||
A|---------------------12p10----12-||
E|13---p10-12h13-13p10-------13----||

That is the full guitar introduction, now it goes onto the verse:

                                     Triplets ->   |____3___| |__3__|
E|---------------------------------------------------------------------3----|
B|--11-11-11-11-11-11-11-12-12-12-12-12-12-12-12----12-12-12---7-7-7---3----|
G|--9--9--9--9--9--9--9--9--9--9--9--9--9--9--9-----11-11-11---6-6-6---0----|
D|--9--9--9--9--9--9--9--9--9--9--9--9--9--9--9-----9--9--9----4-4-4--(0)---|
A|-------------------------------------------(0)----------------------------|
E|0----------------------------------------------10----------5--------3-----|

E|8-8-8-8/7-7---7-||
B|8-8-8-8/7-7---7-||
G|0-0-0-0---0---0-||
D|----------------||
A|----------------||
E|----------------||

That concludes the verse, which is the same chords repeated for every verse. Here is the chorus:

E|------------------------(0)(0)(0)(0)(0)(0)(0)(0)-||
B|10-10-10-10-10-10-10-10--5--5--5--5--5--5--5--5--||
G|9--9--9--9--9--9--9--9---5--5--5--5--5--5--5--5--||
D|7--7--7--7--7--7--7--7---4--4--4--4--4--4--4--4--||
A|------------------------(0)(0)(0)(0)(0)(0)(0)(0)-||
E|8--8--8--8--8--8--8--8---5--5--5--5--5--5--5--5--||

The chorus is played three times.
Tap to rate this tab
# A B C D E F G H I J K L M N O P Q R S T U V W X Y Z