Song name
# A B C D E F G H I J K L M N O P Q R S T U V W X Y Z

Jeff Buckley - Last Goodbye Acoustic tab

Jeff Buckley's rare acoustic intro version of "Last Goodbye." 
Find on youtube for the rhythm..this is my first tab! 
After the introduction, the song is played just like normal, 
so if you're wanting to learn the acoustic version, 
just add this intro and then go into the rest of the song, 
or just find the whole tab on here, and learn that.

Tuning: D G D G B D 

x - mute
/ - slide up
\ - slide down
h - hammer on
p - pull off


This tab may be not be exact, but hopefully you can play around 
with it and enjoy it. It is my fav version of this song. Hope this helps!

e|-x---x-x--0-0-0-2-2-2/-5-5-5-7-5-5--5/9--9---9--9-|
B|-2---2-2--2-2-2-2-2-2/-5-5-5-5-5-5--0----12--12-12|
G|-2---2-2--2-2-2-2-2-2/-5-5-5-5-5-5--0----12--12-12|
D|-2---2-2--2-2-2-2-2-2/-5-5-5-5-5-5--0----0---0--0-|
A|-----------------------5-5-5-5-5-5--0----0---0--0-|
E|--------------------------------------------------|

e|-9---7--7-7\---x--x-x--0-0-0-2-2-2/---5-5-5-7-5-5-|
B|-12\-7--7-7\---2--2-2--2-2-2-2-2-2/---5-5-5-5-5-5-|
G|-12\-7--7-7\---2--2-2--2-2-2-2-2-2/---5-5-5-5-5-5-|
D|-0---7--7-7\---2--2-2--2-2-2-2-2-2/---5-5-5-5-5-5-|
A|-0---7--7-7\---2--2-2--2-2-2-2-2-2/---5-5-5-5-5-5-|
E|--------------------------------------------------|

e|-5/--12--12-12\---7--7-7-7\---x---x-x-0-0-0-2-2-2-|
B|-5/--12--12-12\---7--7-7-7\---2---2-2-2-2-2-2-2-2-|
G|-5/--12--12-12\---7--7-7-7\---2---2-2-2-2-2-2-2-2-|
D|-5/--12--12-12\---7--7-7-7\---2---2-2-2-2-2-2-2-2-|
A|-5/--12--12-12\---7--7-7-7\---2---2-2-2-2-2-2-2-2-|
E|--------------------------------------------------|

e|-2/--5-5-5-7-5-5/ -12---12-12-12\----7----7-7-7---|
B|-2/--5-5-5-5-5-5/--12---12-12-12\----7----7-7-7---|
G|-2/--5-5-5-5-5-5/--12---12-12-12\----7----7-7-7---|
D|-2/--5-5-5-5-5-5/--12---12-12-12\----7----7-7-7---|
A|-2/--5-5-5-5-5-5/--12---12-12-12\----7----7-7-7---|
E|--------------------------------------------------|

e|-0----0---0--0-----0--0--0----0----0--0---0---0-0-|
B|-0----0---0--0-----0--0--0----0----0--0---0---0-0-|
G|-0----0---0--0-----0--0--0----0----0--0---0---0-0-|
D|-11---11--11-11----11-11-11\--9----9--9---9---9-9-|
A|-9----9---9--9-----9--9--9-\--7----7--7---7---7-7-|
E|-11---11--11-11----11-11-11\--9----9--9---9---9-9-|

e|--0-0-0----0-----0--0-----0--0----0--0----0---0---|
B|--0-0-0----0-----0--0-----0--0----0--0----0---0---|
G|--0-0-0----12----12-12----12-12\--11-11---11--11--|
D|--9-9-9----0-----0--0-----0--0----0--0----0---0---| <----This is where the
A|--7-7-7----12----12-12----12-12\--11-11---11--11--|      rest of the song
E|--9-9-9----0-----0--0-----0--0----0--0----0---0---|      kicks in!

Tap to rate this tab
# A B C D E F G H I J K L M N O P Q R S T U V W X Y Z