Song name
# A B C D E F G H I J K L M N O P Q R S T U V W X Y Z

Jeff Buckley - Dreambrother tab

dreambrother

tabbed by tim; submitted by Samus

intro(x4)

e-------------------------------
b-4---4-3---3---3-1---1-0-1-3--3
g---0-----0---0-----0--------0--
d-------------------------------
a-------------------------------
e-------------------------------

this is how it goes until about 2mins when it gets louder.

i could only catch one bit of it which goes pretty stupid like this:

e----------------------
b----------------------
g----------------------
d----------------------
a--------5------5------
e-----3------3---------
Tap to rate this tab
 
# A B C D E F G H I J K L M N O P Q R S T U V W X Y Z