Song name
# A B C D E F G H I J K L M N O P Q R S T U V W X Y Z

Jeff Buckley - Hallelujah chords

Highlighted       Show chord diagrams
-------------------------------------------------------------------------------
                             hallelujah - jeff buckley
-------------------------------------------------------------------------------
Tabbed by:Fachingo
E-mail:Isaiahnewman200@gmail.com
kik: isaiahnewman200
Tuning:Standard
Capo: 3
        
        G                     Em7     
e|------3--------|    e|------3--------|
B|------3--------|    B|------3--------|
G|-----0-0-------|    G|-----0-0-------|
D|----0---0------|    D|----2---2------|
A|---------------|    A|---2-----------|
E|---3-----------|    E|---------------|  
        [ch]Csus7[/ch]                  D
e|------3--------|    e|------2--------|
B|------3--------|    B|------3--------|
G|-----0-0-------|    G|-----2-2-------|
D|----2---2------|    D|----0---0------|
A|---3-----------|    A|---0-----------|
E|---------------|    E|---------------| 
         Bm                  Csus7*    
e|------3--------|    e|---------------|
B|------0--------|    B|---------------|
G|-----2-2-------|    G|-----0---------|
D|----1---1------|    D|----2----------|
A|---2-----------|    A|---3-----------|
E|---------------|    E|---------------|    
        D*         
e|---------------|    
B|---------------|    
G|-----2---------|    
D|----0----------|    
A|---0-----------|    
E|---------------| 


        G                  Em7
Well I heard there was a secret chord
      G                    Em7
that David played and it pleased the Lord
    [ch]Csus7[/ch]             D                  G       Em7
But you don't really care for music, do you?
        G
Well it goes like this:
      Csus7*    D*
The fourth, the fifth,
     Em7                 [ch]Csus7[/ch]
The minor fall and the major lift
      D             Bm           Em
The baffled king composing Hallelujah
 
Chorus:
Tap to rate this tab
# A B C D E F G H I J K L M N O P Q R S T U V W X Y Z