Song name
# A B C D E F G H I J K L M N O P Q R S T U V W X Y Z

Jeff Buckley - Sky Is A Landfill tab

A partial and tentative tab by Michael Harris (26 April 1998).
For personal use only.  Please do not use or modify this tab
without acknowledgment.


Bar lines are only a very approximate guide to timing here.


Intro:

E ---------------------|-------------|-------------------|
B --7--5-----5------5--|-------------|-------------------|
G --5--5-----5------5--|-------------|--4----------------|
D --------7-----7-5----|-9-9---6-6-6-|--5----------------|
A ---------------------|-9-9---6-6-6-|--5----------------|
D ---------------------|-9-9---6-6-6-|--5----------------|


Verse:

E ------8-|--7-|--7-|--3-|----|--7-|---------|---------|-----|
B --7-----|--8-|--7-|--3-|--7-|--8-|---------|---------|-----|
G --5-----|--7-|--5-|--4-|--5-|--7-|---------|---------|--4--|
D --7-----|--9-|--7-|--5-|--7-|--9-|-9-9-9-9-|-6-6-6-6-|--5--|
A --0-----|--7-|--0-|----|--0-|--7-|-9-9-9-9-|-6-6-6-6-|--5--|
D --0-----|----|----|----|----|----|-9-9-9-9-|-6-6-6-6-|--5--|


E --2--|--3--|--2--|--3--|--2--|--3--|----------------------|
B --3--|--3--|--3--|--3--|--3--|--3--|----------------------|
G --2--|--0--|--2--|--0--|--2--|--0--|-------4-4>7-7>11-----|
D --0--|--0--|--0--|--0--|--0--|--0--|-----4----------------|
A --0--|--2--|--0--|--2--|--0--|--2--|---3---2-2>5-5>9------|
D --0--|--0--|--0--|--0--|--0--|--0--|-0--------------------|

Then there's a bit where he sings something like "You see it take another
track..." and then goes into a frantic bit of guitar playing something like
this:

E --------------------------------------------|
B --------------------------------------------|
G ----6--7--8--9/10\9--(rpt.)-----------------|  where the / and \ are
D ----0--0--0--0------------------------------| upward and downward bends
A --------------------------------------------| respectively
D --------------------------------------------|
Tap to rate this tab
# A B C D E F G H I J K L M N O P Q R S T U V W X Y Z