Song name
# A B C D E F G H I J K L M N O P Q R S T U V W X Y Z

Jeff Buckley - Lover You Shouldve Come Over tab

Highlighted       Show chord diagrams
    _________________________________
   / Jeff Buckley                   /  
  / Lover You Should've Come Over  /  
 / Grace                          /  
/________________________________/  

Time: shuffled 6/8
Tempo: Q=61 bpm
The chords are indicated in the bottom of the tab.
When the timing of a chord change is tricky, I've
indicated the change by writing the beat above the chord.


 Intro:
         5+
| D | D  Cadd9 | Em | Em |



 1st Verse:
||: D | D  Cadd9 | Em | Em :||

| C#dim7 | F#7+5 -/e | Bm D/a | G |

| D | D  Cadd9 | Em | Em |



 2nd Verse:
||: D | D  Cadd9 | Em | Em :||

| C#dim7 | F#7+5 -/e | Bm D/a | G F# |



 Bridge:
| Bm | Em | Bm | Em |

| Bm | Em | C | C |

| Em | Em Ddim/f |



 Chorus:
| D/f# | Gm6 | F#m11/a | Em7/b | Aadd9/c# |

                   1        2+    4       5+
| Cmaj7/e Bm11/D | Aadd9/c# Em7/b F#m11/a G6 |

  1  1+
| F# Em | Em |

         4      5+
| D | D [break] Cadd9 | Em | Em |



 3rd Verse:
||: D | D  Cadd9 | Em | Em :||

| C#dim7 | F#7+5 -/e | Bm D/a | G G#dim6 |



 4th Verse:
||: D/a | D/a Cadd9 | Em | Em :|| 4x

| C#dim7 | F#7+5 -/e | Bm D/a | G | Gm6 |



 Ending Chorus:
||: D/f# | Gm6 | F#m11/a | Em7/b | Aadd9/c# |

                   1        2+    4       5+
| Cmaj7/e Bm11/D | Aadd9/c# Em7/b F#m11/a G6 |

  1  1+
| F# Em | Em :|| 3x


| D | D  Cadd9 | Em9 ...



 Verse:
    D  Cadd9  Em   C#dim7  F#7+5  -/e   Bm   D/a   G   F#  G#dim6  Gm6
e---2----3----0-- ---0------------------2-----2----3---2------------0----
B---3----3----0-- ---0-------3-----3----3-----3----3---2-----6------3----
G---2----0----0-- ---0-------3-----3----4-----2----0---3-----4------3----
D---0----2----2-- ---2-------2-----2----4-----0----0---4-----6------0----
A--------3----2-- ---4-------x-----x----2-----0----2---4-----5------x----
E-------------0-- -----------2-----0---------------3---2-----4------3----

 Bridge:
    Bm   Em   C   Ddim/f
 ---2----0----0-----1------
 ---3----0----1-----3------
 ---4----0----0-----1------
 ---4----2----2-----3------
 ---2----2----3-----x------
 --------0----------1------

 Chorus:
   D/f#   Gm6   F#m11/a  Em7/b  Aadd9/c#  Cmaj7/e  Bm11/D   G6   F#   Em
 ---2------0------0--------0------0----------0--------0-----0---------0----
 ---3------3------0--------0------0----------0--------0-----0---------0----
 ---2------3------6--------7------9---------12-------11-----0---------0----
 ---0------0------4--------5------7---------10--------9-----0----4----2----
 ---x------x------x--------x------x----------x--------x-----x----x----2----
 ---2------3------5--------7------9---------12-------10-----3----2----0----

 The Ems:
 Almost every time an Em is played in this song, it's extended with a 7th or
 a 9th or both. There's no repeating pattern in that, so I didn't just add
 it to the regular chords. These are the different Ems used:
    Em   Em7   Em7   Emadd9   Emadd9   Em9
 ---0-----0-----0------2--------0-------2----
 ---0-----3-----3------0--------0-------3----
 ---0-----0-----0------0--------0-------0----
 ---2-----2-----0------2--------4-------2----
 ---2-----2-----2------2--------2-------2----
 ---2-----0-----0------0--------0-------0----


Looking out the door I see the rain fall upon the funeral mourners
Parading in a wake of sad relations as their shoes fill up with water
And maybe I'm too young to keep good love from going wrong
But tonight you’re on my mind so you never know

Broken down and hungry for your love with no way to feed it
Where are you tonight, child, you know how much I need it
Too young to hold on
And too old to just break free and run

Sometimes a man gets carried away
When he feels like should be having his fun
And much too blind to see the damage he's done
Sometimes a man must away to find that really, he has no-one

So I'll wait for you and I'll burn
Will I ever see your sweet return
Oh, will I ever learn
Oh lover, you should've come over
'cause it's not too late

Lonely is the room, the bed is made, the open window lets the rain in
Burning in the corner is the only one in dreams he had you with him
My body turns and yearns for a sleep that won't ever come

It's never over, my kingdom for a kiss upon her shoulder
It's never over, all my riches for her smiles when I slept so soft against her
It's never over, all my blood for the sweetness of her laughter
It's never over, she's the tear that hangs inside my soul forever

Well, maybe I'm just too young
To keep good love from going wrong
Oh lover, you should've come over

Yes, I feel too young to hold on
And I'm much too old to break free and run
Too deaf, dumb, and blind to see the damage I've done
Sweet lover, you should've come over
Oh, love well I wait for you
Lover, you should've come over
'cause its not too late

- 1st /August /08
Just mail me at Maitinin@gmail.com with questions, comments and corrections!
Tap to rate this tab
# A B C D E F G H I J K L M N O P Q R S T U V W X Y Z