Song name
# A B C D E F G H I J K L M N O P Q R S T U V W X Y Z

Jeff Danna - The Blood Of Cu Chulainn tab

-------------------------------------------------------------------------------
		                      THE BLOOD OF CU CHULAINN - Jeff Danna
-------------------------------------------------------------------------------
Tabbed by: AndrewPersonXD

Tuning: Sandard

Order:  
Intro
verse 1
verse 2
verse 1
chorus
verse 2
verse 3
chorus
bridge 1
duet
chorus
bridge 2
outro

____________________________________________
Intro
                        					Guitar 1
e|-10---12-14--10---10------------10----------10-----------------------------|
B|----------------12--12-10----10---10-----10---10---------------------------|
G|--------------------------12--------12-11----------------------------------|
D|---------------------------------------------------------------------------|
A|---------------------------------------------------------------------------|
E|---------------------------------------------------------------------------|

								Guitar 2
e|---------------------------------------------------------------------------|
B|---------------------------------------------------------------------------|
G|---------------------------------------------------------------------------|
D|---------------------------------------------------------------------------|
A|---------------------------------------------------------------------------|
E|---------------------------------------------------------------------------|

===
								Guitar 1
e|-10--12-14-10---10--------10-12-14-10-17-14-12-10--------------------------|
B|--------------12--12-10----------------------------------------------------|
G|-----------------------12--------------------------------------------------|
D|---------------------------------------------------------------------------|
A|---------------------------------------------------------------------------|
E|---------------------------------------------------------------------------|

								Guitar 2
e|---------------------------------------------------------------------------|
B|---------------------------------------------------------------------------|
G|---------------------------------------------------------------------------|
D|---------------------------------------------------------------------------|
A|---------------------------------------------------------------------------|
E|---------------------------------------------------------------------------|


======================================
verse 1
								Guitar 1
e|-10---12-14--10---10------------10----------10-----------------------------|
B|----------------12--12-10----10---10-----10---10---------------------------|
G|--------------------------12--------12-11----------------------------------|
D|---------------------------------------------------------------------------|
A|---------------------------------------------------------------------------|
E|---------------------------------------------------------------------------|

								Guitar 2
e|-10-------------------------------------------10---------------------------|
B|----------------14--------10-------------14--------------------------------|
G|---------------------------------------------------------------------------|
D|---------------------------------------------------------------------------|
A|---------------------------------------------------------------------------|
E|---------------------------------------------------------------------------|

====
								Guitar 1
e|-10--12-14-10---10--------10-12-14-10-17-14-12-10--------------------------|
B|--------------12--12-10----------------------------------------------------|
G|-----------------------12--------------------------------------------------|
D|---------------------------------------------------------------------------|
A|---------------------------------------------------------------------------|
E|---------------------------------------------------------------------------|

								Guitar 2
e|--------------12----------------14-----------------------------------------|
B|-10------------------------------------------------------------------------|
G|---------------------------------------------------------------------------|
D|---------------------------------------------------------------------------|
A|---------------------------------------------------------------------------|
E|---------------------------------------------------------------------------|

===
								Guitar 1
e|-10---12-14--10---10------------10----------10-----------------------------|
B|----------------12--12-10----10---10-----10---10---------------------------|
G|--------------------------12--------12-11----------------------------------|
D|---------------------------------------------------------------------------|
A|---------------------------------------------------------------------------|
E|---------------------------------------------------------------------------|

								Guitar 2
e|-10-------------------------------------------10---------------------------|
B|----------------14--------10------12-----14--------------------------------|
G|---------------------------------------------------------------------------|
D|---------------------------------------------------------------------------|
A|---------------------------------------------------------------------------|
E|---------------------------------------------------------------------------|

===
								Guitar 1
e|-10--12-14-10---10--------10-12-14-10-17-14-12-10--------------------------|
B|--------------12--12-10----------------------------------------------------|
G|-----------------------12--------------------------------------------------|
D|---------------------------------------------------------------------------|
A|---------------------------------------------------------------------------|
E|---------------------------------------------------------------------------|

								Guitar 2
e|--------------14----------------17-----------------------------------------|
B|-10------------------------------------------------------------------------|
G|---------------------------------------------------------------------------|
D|---------------------------------------------------------------------------|
A|---------------------------------------------------------------------------|
E|---------------------------------------------------------------------------|


==================================
verse 2
								Guitar 1
e|----------------------------14-14-12-14-10-10------------------------------|
B|------------------9--11-----------------------14-15-12-12-10-8-10-h12p-10--|
G|-9--11-12-9-11-12-------11b------------------------------------------------|
D|---------------------------------------------------------------------------|
A|---------------------------------------------------------------------------|
E|---------------------------------------------------------------------------|

								Guitar 2
e|----------------------------14-14-12-14-10-10------------------------------|
B|------------------9-11------------------------14-15-12-12-10-8-10-h12p-10--|
G|-9--11-12-9-11-12------11b-------------------------------------------------|
D|---------------------------------------------------------------------------|
A|---------------------------------------------------------------------------|
E|---------------------------------------------------------------------------|

===
								Guitar 1
e|-----------------------9b------------------14-12-10------------------------|
B|------------------9-11--------------10-10-----------12-14~-----------------|
G|-9--11-12-9-11-12-------------11-12----------------------------------------|
D|---------------------------12----------------------------------------------|
A|---------------------------------------------------------------------------|
E|---------------------------------------------------------------------------|

								Guitar 2
e|-----------------------9b------------------14-12-10------------------------|
B|------------------9-11--------------10-10-----------12-14~-----------------|
G|-9--11-12-9-11-12-------------11-12----------------------------------------|
D|---------------------------12----------------------------------------------|
A|---------------------------------------------------------------------------|
E|---------------------------------------------------------------------------|

===
								Guitar 1
e|-14--12--14--12--14/-17----14--12--14--12--14------------------------------|
B|-----------------------------------------------15---14-12--14--------------|
G|---------------------------------------------------------------------------|
D|---------------------------------------------------------------------------|
A|---------------------------------------------------------------------------|
E|---------------------------------------------------------------------------|

								Guitar 2
e|-14--12--14--12--14/-17----14--12--14--12--14------------------------------|
B|-----------------------------------------------15---14-12--14--------------|
G|---------------------------------------------------------------------------|
D|---------------------------------------------------------------------------|
A|---------------------------------------------------------------------------|
E|---------------------------------------------------------------------------|


===========================
verse 1 again
								Guitar 1
e|-10---12-14--10---10------------10----------10-----------------------------|
B|----------------12--12-10----10---10-----10---10---------------------------|
G|--------------------------12--------12-11----------------------------------|
D|---------------------------------------------------------------------------|
A|---------------------------------------------------------------------------|
E|---------------------------------------------------------------------------|

								Guitar 2
e|-10-------------------------------------------10---------------------------|
B|----------------14--------10-------------14--------------------------------|
G|---------------------------------------------------------------------------|
D|---------------------------------------------------------------------------|
A|---------------------------------------------------------------------------|
E|---------------------------------------------------------------------------|

====
								Guitar 1
e|-10--12-14-10---10--------10-12-14-10-17-14-12-10--------------------------|
B|--------------12--12-10----------------------------------------------------|
G|-----------------------12--------------------------------------------------|
D|---------------------------------------------------------------------------|
A|---------------------------------------------------------------------------|
E|---------------------------------------------------------------------------|

								Guitar 2
e|--------------12----------------14-----------------------------------------|
B|-10------------------------------------------------------------------------|
G|---------------------------------------------------------------------------|
D|---------------------------------------------------------------------------|
A|---------------------------------------------------------------------------|
E|---------------------------------------------------------------------------|

===
								Guitar 1
e|-10---12-14--10---10------------10----------10-----------------------------|
B|----------------12--12-10----10---10-----10---10---------------------------|
G|--------------------------12--------12-11----------------------------------|
D|---------------------------------------------------------------------------|
A|---------------------------------------------------------------------------|
E|---------------------------------------------------------------------------|

								Guitar 2
e|-10------------------------------------------------------------------------|
B|----------------14--------10------12-----14---10---------------------------|
G|---------------------------------------------------------------------------|
D|---------------------------------------------------------------------------|
A|---------------------------------------------------------------------------|
E|---------------------------------------------------------------------------|

===
								Guitar 1
e|-10--12-14-10---10--------10-12-14-10-17-14-12-10--------------------------|
B|--------------12--12-10----------------------------------------------------|
G|-----------------------12--------------------------------------------------|
D|---------------------------------------------------------------------------|
A|---------------------------------------------------------------------------|
E|---------------------------------------------------------------------------|

								Guitar 2
e|--------------14----------------17----------10--9--------------------------|
B|-12--------------------------------------10--------------------------------|
G|---------------------------------------------------------------------------|
D|---------------------------------------------------------------------------|
A|---------------------------------------------------------------------------|
E|---------------------------------------------------------------------------|


======================
chorus

								Guitar 1
e|-10---12-14--10---10------------10----------10-----10-12-14-10--10-------10-12-14-10-17-14-12-10-|
B|----------------12--12-10----10---10-----10---10---------------12--12-10-------------------------|
G|--------------------------12--------12-11-------------------------------12-----------------------|
D|-------------------------------------------------------------------------------------------------|
A|-------------------------------------------------------------------------------------------------|
E|-------------------------------------------------------------------------------------------------|

								Guitar 2
e|-------------------------------------------------------------------------------------------10--9-|
B|-12--------12--------------10------------10------------12------------------10-----------10-------|
G|----------------------11-------------------------------------------11----------------------------|
D|----------------12-------------------------------------------------------------------------------|
A|-------------------------------------------------------------------------------------------------|
E|-------------------------------------------------------------------------------------------------|

===
								Guitar 1
e|-10---12-14--10---10------------10----------10-----10-12-14-10--10-------10-12-14-10-17-14-12-10-|
B|----------------12--12-10----10---10-----10---10--------------12--12-10--------------------------|
G|--------------------------12--------12-11------------------------------12------------------------|
D|-------------------------------------------------------------------------------------------------|
A|-------------------------------------------------------------------------------------------------|
E|-------------------------------------------------------------------------------------------------|

								Guitar 2
e|-------------------------------------------------------------------------------------------------|
B|-12---10--h12p-------------10------------10------------12------------------10--------------------|
G|----------------------11-------------------------------------------11----------------------------|
D|----------------12-------------------------------------------------------------------------------|
A|-------------------------------------------------------------------------------------------------|
E|-------------------------------------------------------------------------------------------------|


================================
verse 2 again
								Guitar 1
e|----------------------------14-14-12-14-10-10------------------------------|
B|------------------9--11-----------------------14-15-12-12-10-8-10-h12p-10--|
G|-9--11-12-9-11-12-------11b------------------------------------------------|
D|---------------------------------------------------------------------------|
A|---------------------------------------------------------------------------|
E|---------------------------------------------------------------------------|

								Guitar 2
e|----------------------------14-14-12-14-10-10------------------------------|
B|------------------9-11------------------------14-15-12-12-10-8-10-h12p-10--|
G|-9--11-12-9-11-12------11b-------------------------------------------------|
D|---------------------------------------------------------------------------|
A|---------------------------------------------------------------------------|
E|---------------------------------------------------------------------------|

===
								Guitar 1
e|-----------------------9b------------------14-12-10------------------------|
B|------------------9-11--------------10-10-----------12-14~-----------------|
G|-9--11-12-9-11-12-------------11-12----------------------------------------|
D|---------------------------12----------------------------------------------|
A|---------------------------------------------------------------------------|
E|---------------------------------------------------------------------------|

								Guitar 2
e|-----------------------9b------------------14-12-10------------------------|
B|------------------9-11--------------10-10-----------12-14~-----------------|
G|-9--11-12-9-11-12-------------11-12----------------------------------------|
D|---------------------------12----------------------------------------------|
A|---------------------------------------------------------------------------|
E|---------------------------------------------------------------------------|

===
								Guitar 1
e|-14--12--14--12--14/-17----14--12--14--12--14------------------------------|
B|-----------------------------------------------15---14-12--14--------------|
G|---------------------------------------------------------------------------|
D|---------------------------------------------------------------------------|
A|---------------------------------------------------------------------------|
E|---------------------------------------------------------------------------|

								Guitar 2
e|-14--12--14--12--14/-17----14--12--14--12--14------------------------------|
B|-----------------------------------------------15---14-12--14--------------|
G|---------------------------------------------------------------------------|
D|---------------------------------------------------------------------------|
A|---------------------------------------------------------------------------|
E|---------------------------------------------------------------------------|


===========================
verse 3
								Guitar 1
e|---------------------------------------------------------------------------|
B|---------------------------------------------------------------------------|
G|---------------------------------------------------------------------------|
D|---------------------------------------------------------------------------|
A|---------------------------------------------------------------------------|
E|---------------------------------------------------------------------------|

								Guitar 2
e|-10-------------------------------------------10---------------------------|
B|----------------14--------10-------------14--------------------------------|
G|---------------------------------------------------------------------------|
D|---------------------------------------------------------------------------|
A|---------------------------------------------------------------------------|
E|---------------------------------------------------------------------------|

====
								Guitar 1
e|---------------------------------------------------------------------------|
B|---------------------------------------------------------------------------|
G|---------------------------------------------------------------------------|
D|---------------------------------------------------------------------------|
A|---------------------------------------------------------------------------|
E|---------------------------------------------------------------------------|

								Guitar 2
e|--------------12----------------14-----------------------------------------|
B|-10------------------------------------------------------------------------|
G|---------------------------------------------------------------------------|
D|---------------------------------------------------------------------------|
A|---------------------------------------------------------------------------|
E|---------------------------------------------------------------------------|

===
								Guitar 1
e|----------------14---------------------------------------------------------|
B|-12------------------------------------------------------------------------|
G|---------------------------------------------------------------------------|
D|---------------------------------------------------------------------------|
A|---------------------------------------------------------------------------|
E|---------------------------------------------------------------------------|

								Guitar 2
e|-10------------------------------------------------------------------------|
B|----------------14--------10------12-----14---10---------------------------|
G|---------------------------------------------------------------------------|
D|---------------------------------------------------------------------------|
A|---------------------------------------------------------------------------|
E|---------------------------------------------------------------------------|

===
								Guitar 1
e|--------------------------------------------10--9--------------------------|
B|-----------------------------------------10--------------------------------|
G|---------------------------------------------------------------------------|
D|---------------------------------------------------------------------------|
A|---------------------------------------------------------------------------|
E|---------------------------------------------------------------------------|

								Guitar 2
e|--------------14----------------17----------10--9--------------------------|
B|-12--------------------------------------10--------------------------------|
G|---------------------------------------------------------------------------|
D|---------------------------------------------------------------------------|
A|---------------------------------------------------------------------------|
E|---------------------------------------------------------------------------|


================================
chorus
								Guitar 1
e|-10---12-14--10---10------------10----------10-----10-12-14-10--10-------10-12-14-10-17-14-12-10-|
B|----------------12--12-10----10---10-----10---10---------------12--12-10-------------------------|
G|--------------------------12--------12-11-------------------------------12-----------------------|
D|-------------------------------------------------------------------------------------------------|
A|-------------------------------------------------------------------------------------------------|
E|-------------------------------------------------------------------------------------------------|

								Guitar 2
e|-------------------------------------------------------------------------------------------10--9-|
B|-12--------12--------------10------------10------------12------------------10-----------10-------|
G|----------------------11-------------------------------------------11----------------------------|
D|----------------12-------------------------------------------------------------------------------|
A|-------------------------------------------------------------------------------------------------|
E|-------------------------------------------------------------------------------------------------|

===
								Guitar 1
e|-10---12-14--10---10------------10----------10-----10-12-14-10--10-------10-12-14-10-17-14-12-10-|
B|----------------12--12-10----10---10-----10---10--------------12--12-10--------------------------|
G|--------------------------12--------12-11------------------------------12------------------------|
D|-------------------------------------------------------------------------------------------------|
A|-------------------------------------------------------------------------------------------------|
E|-------------------------------------------------------------------------------------------------|

								Guitar 2
e|-------------------------------------------------------------------------------------------------|
B|-12---10--h12p-------------10------------10------------12------------------10--------------------|
G|----------------------11-------------------------------------------11----------------------------|
D|----------------12-------------------------------------------------------------------------------|
A|-------------------------------------------------------------------------------------------------|
E|-------------------------------------------------------------------------------------------------|


================================
bridge 1
								Guitar 1
e|---------------------------------------------------------------------------|
B|---------------------------------------------------------------------------|
G|-11---------11---12-----14---11---------11---------------------------------|
D|-------14--------------------------14--------12----12--11------------------|
A|---------------------------------------------------------------------------|
E|---------------------------------------------------------------------------|

								Guitar 2
e|---------------------------------------------------10---9------------------|
B|---------------------------------------------------------------------------|
G|-11---------11---12-----14---11---------11---------------------------------|
D|-------14--------------------------14--------12----------------------------|
A|---------------------------------------------------------------------------|
E|---------------------------------------------------------------------------|



================================
duet
								Guitar 1
e|---------------------------------------------------------------------10-9-h10p-9-|
B|-10/12---12-10-h12p-------------10---10---12--------10-----------10--------------|
G|---------------------------11------------------11--------------------------------|
D|----------------------12---------------------------------------------------------|
A|---------------------------------------------------------------------------------|
E|---------------------------------------------------------------------------------|

								Guitar 2
e|---------------------------------------------------------------------10-9-h10p-9-|
B|-10/12---12-10-h12p-------------10---10---12--------10-----------10--------------|
G|---------------------------11------------------11--------------------------------|
D|----------------------12---------------------------------------------------------|
A|---------------------------------------------------------------------------------|
E|---------------------------------------------------------------------------------|


===
								Guitar 1
e|---------------------------------------------------------------------------|
B|-10/12----14----15--------------14---15-------------15--14--15-------------|
G|---------------------------11------------------11--------------14----------|
D|----------------------12------------------12-------------------------------|
A|---------------------------------------------------------------------------|
E|---------------------------------------------------------------------------|

								Guitar 2
e|---------------------------------------------------------------------------|
B|-10/12---12-10-h12p-------------10---10---12--------10---------------------|
G|---------------------------11------------------11--------------------------|
D|----------------------12---------------------------------------------------|
A|---------------------------------------------------------------------------|
E|---------------------------------------------------------------------------|



================================
chorus
								Guitar 1
e|-10---12-14--10---10------------10----------10-----10-12-14-10--10-------10-12-14-10-17-14-12-10-|
B|----------------12--12-10----10---10-----10---10---------------12--12-10-------------------------|
G|--------------------------12--------12-11-------------------------------12-----------------------|
D|-------------------------------------------------------------------------------------------------|
A|-------------------------------------------------------------------------------------------------|
E|-------------------------------------------------------------------------------------------------|

								Guitar 2
e|-------------------------------------------------------------------------------------------10--9-|
B|-12--------12--------------10------------10------------12------------------10-----------10-------|
G|----------------------11-------------------------------------------11----------------------------|
D|----------------12-------------------------------------------------------------------------------|
A|-------------------------------------------------------------------------------------------------|
E|-------------------------------------------------------------------------------------------------|

===
								Guitar 1
e|-10---12-14--10---10------------10----------10-----10-12-14-10--10-------10-12-14-10-17-14-12-10-|
B|----------------12--12-10----10---10-----10---10--------------12--12-10--------------------------|
G|--------------------------12--------12-11------------------------------12------------------------|
D|-------------------------------------------------------------------------------------------------|
A|-------------------------------------------------------------------------------------------------|
E|-------------------------------------------------------------------------------------------------|

								Guitar 2
e|-------------------------------------------------------------------------------------------------|
B|-12---10--h12p-------------10------------10------------12------------------10--------------------|
G|----------------------11-------------------------------------------11----------------------------|
D|----------------12-------------------------------------------------------------------------------|
A|-------------------------------------------------------------------------------------------------|
E|-------------------------------------------------------------------------------------------------|



================================
bridge 2
								Guitar 1
e|-------------------------------------14-------------14-17------------------|
B|---------------------------15-14-12---------12--14---------------------12--|
G|-----11---------11-12-14--------------------------------------------11-----|
D|------------12-------------------------------------------------------------|
A|-12------------------------------------------------------------------------|
E|---------------------------------------------------------------------------|

								Guitar 2
e|-------------------------------------14-------------14-17------------------|
B|---------------------------15-14-12---------12--14---------------------12--|
G|-----11---------11-12-14--------------------------------------------11-----|
D|------------12-------------------------------------------------------------|
A|-12------------------------------------------------------------------------|
E|---------------------------------------------------------------------------|


================================
outro
								Guitar 1
e|---------------------------------------------------------------------10-9-h10p-9-|
B|-10/12---12-10-h12p-------------10---10---12--------10-----------10--------------|
G|---------------------------11------------------11--------------------------------|
D|----------------------12---------------------------------------------------------|
A|---------------------------------------------------------------------------------|
E|---------------------------------------------------------------------------------|

								Guitar 2
e|---------------------------------------------------------------------10-9-h10p-9-|
B|-10/12---12-10-h12p-------------10---10---12--------10-----------10--------------|
G|---------------------------11------------------11--------------------------------|
D|----------------------12---------------------------------------------------------|
A|---------------------------------------------------------------------------------|
E|---------------------------------------------------------------------------------|


===
								Guitar 1
e|---------------------------------------------------------------------------|
B|-10/12----14----15--------------14---15-------------15---14---15-----------|
G|---------------------------11------------------11-------------------13h14--|
D|----------------------12------------------12-------------------------------|
A|---------------------------------------------------------------------------|
E|---------------------------------------------------------------------------|

								Guitar 2
e|---------------------------------------------------------------------------|
B|-10/12---12-10-h12p-------------10---10---12--------10---------------------|
G|---------------------------11------------------11--------------------------|
D|----------------------12---------------------------------------------------|
A|---------------------------------------------------------------------------|
E|---------------------------------------------------------------------------|


************************************

| /   slide up
| \   slide down
| h   hammer-on
| p   pull-off
| ~   vibrato
| +   harmonic
| x   Mute note
| b   Bend
| pb  Pre-bend
| br  Bend release
| pbr Pre-bend release
| brb Bend release bend

************************************
Tap to rate this tab
 
# A B C D E F G H I J K L M N O P Q R S T U V W X Y Z