Song name
# A B C D E F G H I J K L M N O P Q R S T U V W X Y Z

Jeff Danna - Ross Concert tab

Help us improve GuitareTab! Take a short survey!
#----------------------------------PLEASE NOTE---------------------------------#
#This file is the author's own work and represents their interpretation of the #
#song. You may only use this file for private study, scholarship, or research. #
#------------------------------------------------------------------------------#

ROSS' CONCERT
As recorded by Jeff Danna
(From the 2006 Album UNCORKED SOUNDTRACT)
http://www.jeffdanna.com


Transcribed by Chris Riding


Ok to start off I hope this means people will stop asking me to tab this out. Its as
as your probably gonna get so enjoy. This is a compilations of multiple recorded tracts of
tunings. In other words the the guy who recorded it played a piece, retuned, and then
in tracts to sound like he's still playing. The entire song is a comination of 4
tunings!!! This is my version on the same basic tuning which can be played live. The
part should be near perfect and the fast is as good as you'll get without 4 guitars on hand
play.

To tune your Guitar to this tuning of DBDGAD  tune as follows:

In the normal style of tuning to the 5th fret before the next string tune the following
to the corrosponding fret on the previous string.
low 6th to drop D, 5 to the 7th fret on the new D for 5th
4th string tuned to 3 fret of 5th
3rd is to 5th fret of 4th
2nd to 2nd of 3rd
1st to 5th of 2nd

In other words instead of tuning 5-5-5-4-5
tune
7-3-5-2-5 from a low D

Hope that helps

Any suggestions are welcome. CR


Gtr I (D B D G A D) - 'DBDGAD'


 4/4
  Gtr I
   Q  Q Q  Q  Q Q Q Q  Q Q Q Q  Q Q Q Q  Q  Q Q  Q Q Q Q Q
|--4----4--7--------0--------0--0--------4----4--7---9---7--|
|-----7-------5---0----0--------------0-----7---------------|
|------------------------0h4--------0--------------6---6----|
|---------------0-----------------4-------------------------|
|--0-------------------------------------0------------------|
|----------4--------5-----------0----------------4----------|


  Q Q Q Q    Q    Q     Q Q Q Q  Q Q Q  Q Q Q Q Q Q Q  Q Q Q Q Q Q Q
|-0--------<12>---------4------------4--7--------------0-----------0--|
|---0-----------<12>------4------7--------0-----5---0----0------------|
|-----0---------------------4------4--------6--------------0---0h4----|
|-------0---------------------0---------------0---0-------------------|
|-----------------------0---------------------------------------------|
|-5-------------------------------------4--------------5-----5--------|


  Q Q Q Q Q Q Q Q Q  Q Q Q Q Q Q Q  Q Q Q Q Q  Q Q Q Q Q Q Q Q Q Q
|-0---------0--------4-----------4--7---9---7--5---------7-------9--|
|----------------------4-----7-------------------0---------0--------|
|---------2--------------4-----4------6---6--------0---------0------|
|---0h2h4-----4-2-0----------------------------------0---------0----|
|--------------------0-----0---------------------------0-0-------5--|
|-0---------------------------------4----------5--------------------|


  Q Q Q Q Q Q Q Q Q Q Q Q Q Q Q  Q Q Q Q Q Q Q Q Q Q Q Q Q Q Q  Q Q
|-7h9-7-5-4---0---------0-----0--7h9-7-5-4---0---------------0--7h9--|
|-5---------0---0---4-----0------5---------5---0---9-----0------5----|
|-0-------------------2-----4----0-------------------9-----4----0----|
|-0------------------------------0---------------------0--------0----|
|----------------------------------------0---------------------------|
|---------0-------4-------0----------------------7-------5-----------|


  Q Q Q Q Q Q Q Q Q Q   Q Q Q Q  Q Q Q  Q Q Q Q Q Q Q Q Q Q Q
|-7-5-4---0---------0--12-------11---9--4-------4-----------0----|
|-------0---0---4---------0--------0------5-4h5---4h5p4-----0----|
|-----------------2---------0---------------------------4---4----|
|-----------------------------0---------------------------0-0----|
|-----------------------8---------------0------------------------|
|-----0-------4------------------7--------------------------5----|


  Q  Q  Q  Q    Q  Q  Q  Q    Q  Q  Q  Q    Q  Q  Q  Q
|-7h=9--7--5--|-4-----0-----|----------0--|-------0--7h=|
|-5-----------|----0-----0--|----4--------|-0--------5--|
|-0-----------|-------------|-------2-----|----4-----0--|
|-0-----------|-------------|-------------|----------0--|
|-------------|-------------|-------------|-------------|
|-------------|-0-----------|-4-----------|-0-----------|


  Q  Q  Q  Q    Q  Q  Q  Q    Q  Q  Q  Q    Q  Q  Q  Q
|-9--7--5--4--|----0--------|-------------|----0--7h=9--|
|-------------|-5-----0-----|-9--------0--|-------5-----|
|-------------|-------------|----9--------|-4-----0-----|
|-------------|-------------|-------0-----|-------0-----|
|----------0--|-------------|-------------|-------------|
|-------------|----------7--|----------5--|-------------|


  Q  Q  Q  Q    Q  Q  Q  Q    Q  Q   Q  Q
|-7--5--4-----|-0-----------|----0--12-----|
|----------0--|----0-----4--|-----------0--|
|-------------|-------------|-2------------|
|-------------|-------------|--------------|
|-------------|-------------|--------8-----|
|-------0-----|-------4-----|--------------|


  Q  Q   Q  Q    Q  Q  Q  Q    Q  Q  Q  Q    Q  Q  Q  Q
|-------11-----|-9--4--------|----4--------|----------7----|
|-----------0--|-------5--4h=|=5-----4h=5p=|=4--------0----|
|-0------------|-------------|-------------|----4-----4----|
|----0---------|-------------|-------------|-------0--0----|
|--------------|----0--------|-------------|---------------|
|--------7-----|-------------|-------------|----------5----|


  Q  Q  Q  Q  Q  Q  Q  Q  Q  Q  Q  Q  Q  Q  Q  Q  Q  Q  Q
|----------------0-----------------------------0--------2--|
|-------------------0-----------------------------0-----0--|
|-------------2-----------0h=2--------------2-----------0--|
|----0h=2h=4-----------4-----------0h=2h=4-----------4--0--|
|----------------------------------------------------------|
|-0-----------------------------0--------------------------|


  Q  Q  Q  Q    Q  Q  Q  Q    Q  Q  Q  Q    Q  Q  Q  Q    Q  Q
|-------------|----0--------|-------------|----------0--|-------|
|-------------|-------0-----|-------------|-------------|-0-----|
|-------------|-2-----------|-0h=2--------|-------2-----|-------|
|----0h=2h=4--|----------4--|----------0h=|=2h=4--------|----4--|
|-------------|-------------|-------------|-------------|-------|
|-0-----------|-------------|-------0-----|-------------|-------|


  Q Q Q Q Q Q Q Q Q Q Q Q Q Q Q Q Q Q Q Q Q  Q Q Q Q Q Q Q Q Q Q  Q Q  Q
|---------------0-------------------0-4-2-0--5-------7-------9---11---12-|
|-----------------0-------------------0-0-0----0-------0-------0----0----|
|-------------2-------0h2---------2---2-2-2------0-------0--------0------|
|-2-0---0h2h4-------4-------0h2h4------------------0-------0-0---------0-|
|-----0-------------------0--------------------------0-------------------|
|--------------------------------------------5---------------------------|


  Q   Q   Q  Q  Q  Q  Q  Q  Q  Q  Q  Q  Q  Q  Q  Q  Q  Q  Q  Q  Q
|----11--12-----------------0--------------4-----0-----2-----0-----|
|-0----------------------------0--------------------------------0--|
|------------------------2-----------0h=2-----------------0--------|
|---------------0h=2h=4-----------4-----------------4--------------|
|------------------------------------------------------------------|
|------------0--------------------------------0--------------------|


  Q  Q  Q  Q    Q  Q  Q  Q    Q  Q  Q  Q    Q  Q  Q  Q    Q  Q   Q  Q
|-------------|----0--------|-------4-----|-0-----2-----|-0-------------|
|-------------|-------0-----|-------------|-------------|----0----------|
|-------------|-2-----------|-0h=2--------|----------0--|---------------|
|----0h=2h=4--|----------4--|-------------|----4--------|--------4------|
|-------------|-------------|-------------|-------------|-----------0---|
|-0-----------|-------------|----------0--|-------------|---------------|


  Q Q Q Q Q Q Q Q Q  Q Q Q Q Q Q Q  Q Q Q Q Q Q Q Q Q
|---------0----------4---0---2---0--5-------7-------9----|
|-----------0-------------------------0-------0----------|
|-------2-------0h2------------0--------0-------0--------|
|-0h2h4-------4------------4--------------0-------0------|
|----------------------0--------------------0-------5----|
|-----------------------------------5--------------------|


  Q  Q  Q  Q    Q  Q  Q  Q    Q  Q  Q  Q    Q  Q  Q  Q
|-7h=9--7--5--|-4-----0-----|----------0--|-------0--7h=|
|-5-----------|----0-----0--|----4--------|-0--------5--|
|-0-----------|-------------|-------2-----|----4-----0--|
|-0-----------|-------------|-------------|----------0--|
|-------------|-------------|-------------|-------------|
|-------------|-0-----------|-4-----------|-0-----------|


  Q  Q  Q  Q    Q  Q  Q  Q    Q  Q  Q  Q    Q  Q  Q  Q
|-9--7--5--4--|----0--------|-------------|----0--7h=9--|
|-------------|-5-----0-----|-9--------0--|-------5-----|
|-------------|-------------|----9--------|-4-----0-----|
|-------------|-------------|-------0-----|-------0-----|
|----------0--|-------------|-------------|-------------|
|-------------|----------7--|----------5--|-------------|


  Q  Q  Q  Q    Q  Q  Q  Q    Q  Q   Q  Q
|-7--5--4-----|-0-----------|----0--12-----|
|----------0--|----0-----4--|-----------0--|
|-------------|-------------|-2------------|
|-------------|-------------|--------------|
|-------------|-------------|--------8-----|
|-------0-----|-------4-----|--------------|


  Q  Q   Q  Q    Q  Q  Q  Q    Q  Q  Q  Q    Q  Q  Q  Q
|-------11-----|-9--4--------|----4--------|----------7----|
|-----------0--|-------5--4h=|=5-----4h=5p=|=4--------0----|
|-0------------|-------------|-------------|----4-----4----|
|----0---------|-------------|-------------|-------0--0----|
|--------------|----0--------|-------------|---------------|
|--------7-----|-------------|-------------|----------5----|


  S. E E E E E E E E E E E   S. E E E E E E E E   E E E  S S S S  S S S
|----0-----0-----0-----0---|----0-----0-----0---|---0----7-----7-/9------|
|------0-----0-----0-----0-|------0-----0-----0-|-----0----0--------0----|
|--------------------------|--------------------|------------0--------0--|
|-0------0-----0-----0-----|-0------0-----0-----|-0----------------------|
|--------------------------|--------------------|------------------------|
|--------------------------|--------------------|------------------------|


  S S S S  S S S S S S S S S S S S S S S S S S S S S S S S S S S
|-7-----5\-0---0-------0-------0-------0-----0---0-0-0-0-0-0-0-0----|
|---0------------0---0-----------0---0-----0---5-5-5-5-4-4-4-4-5----|
|-----0------2-----4-----4-2-2-----4-----5-------2-2-2-2-2-2-2-2----|
|------------------------------------------------0-0-0-0-0-0-0-0----|
|-------------------------------------------------------------------|
|-------------------------------------------------------------------|


  S S S S  S S S S S S S  S  S S S S S S S  S S S S S S S S S S
|-7-----7-/9-----7-----5\-0----0-------0------0-------0-----0------|
|---0--------0-----0-------------0---0----------0---0-----0--------|
|-----0--------0-----0-------2-----4-----2--2-----0----------------|
|-------------------------------------------------------4-----0----|
|------------------------------------------------------------------|
|------------------------------------------------------------------|


  S S S S S S S S  S S S S  S S S   S S S S  S   S S S S S S S S S
|-0-0-0-0-0-0-0-0--7-----7-/9-----|-7-----5\-0-----------------------|
|-5-5-5-4-4-4-4-5----0--------0---|---0------------0-----0-----0-----|
|-2-2-2-2-2-2-2-2------0--------0-|-----0------------0-----0-----0---|
|-0-0-0-0-0-0-0-0-----------------|----------------------------------|
|---------------------------------|--------------0-----2-----0-------|
|---------------------------------|----------------------------------|


  S S S S S S S S S S S S S  S S S  S S S S S S S S
|-----------------------------------0-0-0-0-0-0-0-0----|
|---0-------0-----0-----0------0----0-0-0-0-0-0-0-0----|
|-----0---0-----0-----0------0------0-0-0-0-0-0-0-0----|
|-----------------------------------0-0-0-0-0-0-0-0----|
|-------0-----2-----3-----5\-----0--0-0-0-0-0-0-0-0----|
|-7---------------------------------0-0-0-0-0-0-0-0----|


  S S S S S S S S S S S S S   S   S S S S S S S S S S S S
|-2-0-0-4-0-0-0-4-0-0-7-0-0---2-|-0-0-4-0-0-0-4-0-0-7-0-0----|
|-0-0-0-0-0-0-0-0-0-0-0-0-0---0-|-0-0-0-0-0-0-0-0-0-0-0-0----|
|-2-0-0-4-0-0-0-4-0-0-7-0-0---2-|-0-0-4-0-0-0-4-0-0-7-0-0----|
|-2-0-0-4-0-0-0-4-0-0-0-0-0---2-|-0-0-4-0-0-0-4-0-0-0-0-0----|
|-------------------------------|----------------------------|
|-------------------------------|----------------------------|


           PM          PM                   PM          PM
  S S S S  S  S S S S  S  S S S S  S S S S  S  S S S S  S
|------------------------------------------------------------|
|-0-0-0-0--0--0-0-0-0--0--0-0-0-0--0-0---0--0--0-0-0-0--0----|
|-2-2-2-2--2--2-2-2-2--2--2-2-2-2--2-4---4--4--4-4-4-4--4----|
|-3-3-3-3--3--3-3-3-3--3--3-3-3-3--3-5---5--5--5-5-5-5--5----|
|-1-1-1-1--1--1-1-1-1--1--1-1-1-1--1-3---3--3--3-3-3-3--3----|
|-3-3-3-3--3--3-3-3-3--3--3-3-3-3--3-5-5-5--5--5-5-5-5--5----|


  S S S S   S S S S S S S S S S   S S S S S S S S S S S S S S S S
|-----------2-0-0-4-0-0-0-4-0-0-|-7-0-0-2-0-0-4-0-0-0-4-0-0-7-0-0---|
|-0-0-0-0---0-0-0-0-0-0-0-0-0-0-|-0-0-0-0-0-0-0-0-0-0-0-0-0-0-0-0---|
|-4-4-4-4---2-0-0-4-0-0-0-4-0-0-|-7-0-0-2-0-0-4-0-0-0-4-0-0-7-0-0---|
|-5-5-5-5---2-0-0-4-0-0-0-4-0-0-|-0-0-0-2-0-0-4-0-0-0-4-0-0-0-0-0---|
|-3-3-3-3-----------------------|-----------------------------------|
|-5-5-5-5-----------------------|-----------------------------------|


          PM           PM                     PM           PM
  S S S S H    S S S S H    S S S S S S   S S H    S S S S H      S S S S
|---------------------------------------|-----------------------|-----------|
|-0-0-0-0-0----0-0-0-0-0----0-0-0-0-0-0-|---0-0----0-0-0-0-0----|-0-0-0-0---|
|-2-2-2-2-2----2-2-2-2-2----2-2-2-2-2-4-|---4-4----4-4-4-4-4----|-4-4-4-4---|
|-3-3-3-3-3----3-3-3-3-3----3-3-3-3-3-5-|---5-5----5-5-5-5-5----|-5-5-5-5---|
|-1-1-1-1-1----1-1-1-1-1----1-1-1-1-1-3-|---3-3----3-3-3-3-3----|-3-3-3-3---|
|-3-3-3-3-3----3-3-3-3-3----3-3-3-3-3-5-|-5-5-5----5-5-5-5-5----|-5-5-5-5---|


  E E E E E E E E E E E E   E E E E E E E E   E E E E E E E E E E
|-------------------------|-----------------|-------------------0----|
|-------------------------|-----------0-----|-------0-----0----------|
|-----------0-----------0-|-----0-----------|-0-------------0h5------|
|-----0-----------0-------|-------0h5-------|---0h5---0h3------------|
|-------0h5---------0h5---|-0h3---------0h3-|------------------------|
|-0h3---------0h3---------|-----------------|------------------------|


  E E E E E E E    E E  E E  E E  E E  E E  E E  E
|-----------0-0----7-7--9-9--7-7--5-5--4-4--4-0--0----|
|-----0-------0----0-0--0-0--0-0--0-0--0-0--0-0--0----|
|-------0h5---0----0-0--0-0--0-0--0-0--0-0--2-2--2----|
|-0h3---------0----0-0--0-0--0-0--0-0--0-0--0-0--0----|
|-------------------------------------------3-3--3----|
|-------------------------------------------0-0--5----|


  E E E E E E E E   E E E E E E E E   E E E E E E E  E E  E  E
|-7-7-9-9-7-7-5-5-|-4-4-4-0-0-7-7-9-|-9-7-7-5-5-4-4--4-4--0--0----|
|-0-0-0-0-0-0-0-0-|-0-0-0-0-0-0-0-0-|-0-0-0-0-0-0-0--0-0--0--0----|
|-0-0-0-0-0-0-0-0-|-0-0-2-2-2-0-0-0-|-0-0-0-0-0-0-0--2-2--2--2----|
|-0-0-0-0-0-0-0-0-|-0-0-0-0-0-0-0-0-|-0-0-0-0-0-0-0--0-4--0--0----|
|-----------------|-----3-3-3-------|----------------3-3--3--3----|
|-----------------|-----0-0-5-------|----------------0-0--5--0----|


--------------------------------------------------------------------------------


Duration Legend
---------------
W - whole; H - half; Q - quarter; E - 8th; S - 16th; T - 32nd; X - 64th; a - acciaccatura
+ - note tied to previous; . - note dotted; .. - note double dotted
Uncapitalized letters represent notes that are staccato (1/2 duration)
Irregular groupings are notated above the duration line
Duration letters will always appear directly above the note/fret number it represents the
duration for.  Duration letters with no fret number below them represent rests.  Multi-
bar rests are notated in the form Wxn, where n is the number of bars to rest for.  Low
melody durations appear below the staff

Tablature Legend
----------------
 h   - hammer-on
 p   - pull-off
 b   - bend
 pb  - pre-bend
 r   - bend release (if no number after the r, then release immediately)
 /\  - slide into or out of (from/to "nowhere")
 s   - legato slide
 S   - shift slide
 - natural harmonic
[n]  - artificial harmonic
n(n) - tapped harmonic
 ~   - vibrato
 tr  - trill
 T   - tap
 TP  - trem. picking
 PM  - palm muting
\n/  - tremolo bar dip; n = amount to dip
 \n  - tremolo bar down
 n/  - tremolo bar up
/n\  - tremolo bar inverted dip
 =   - hold bend; also acts as connecting device for hammers/pulls
 <> - volume swell (louder/softer)
 x   - on rhythm slash represents muted slash
 o   - on rhythm slash represents single note slash

Misc Legend
-----------
 |  - bar
||  - double bar
||o - repeat start
o|| - repeat end
*|  - double bar (ending)
 :  - bar (freetime)
 $  - Segno
 &  - Coda
Tempo markers -  = BPM(8/16=s8/s16), where s8 = swing 8ths, s16 = swing 16ths

--------------------------------------------------------------------------------

** Generated using Power Tab Editor by Brad Larsen: The Official Power Tab Web Site
Related for Ross Concert tab