Song name
# A B C D E F G H I J K L M N O P Q R S T U V W X Y Z

Jeff Deyo - We Are Hungry tab

----------------------------------------------------------------------------
			   We Are Hungry - Jeff Deyo
----------------------------------------------------------------------------
Tabbed by:Joshua Alvarado
Email:Alvarador@bellsouth.net

Tuning:Standard

Intro F#m F#m A A F#m F#m E D

Lead guitarist intro riff x11
e|--------------------------------------------------------------------------|
B|--------------------------------------------------------------------------|
G|-14-16-13-14-11~----------------------------------------------------------|
D|--------------------------------------------------------------------------|
A|--------------------------------------------------------------------------|
E|--------------------------------------------------------------------------|

Verse 1 x2
A        D             F#m              D
Lord, I want more of you  Living water rain down on me
A        D             F#m                  D
Lord, I need more of you  Living breath of life come fill me up

Lead guitarist comes in second time of verse Repeat through all of verse
All about timing
e|--------------------------------------------------------------------------|
B|-------14----14-------14----14-----------------------------------------|
G|-14-14----14----14-14----14---------------------------------------------|
D|--------------------------------------------------------------------------|
A|--------------------------------------------------------------------------|
E|--------------------------------------------------------------------------|
 Do this in the verse when the singer sings
 ...Rain Down on me...
e|------------16-17---------------------------------------------------------|
B|--------------------------------------------------------------------------|
G|--------------------------------------------------------------------------|
D|--------------------------------------------------------------------------|
A|--------------------------------------------------------------------------|
E|--------------------------------------------------------------------------|

Chorus
A         E/G#           F#m            D                 A
  We are hungry, we are hungry We are hungry for more of you
         E/G#       F#m            D                F#m F#m A A
We are thristy, oh Jesus We are thristy for more of you

After 1st chorus repeat intro riff x4

Verse 2 x1
A        D             F#m            D
Lord, I want more of you  Holy Sorit rain on me
A        D             F#m                  D
Lord, I need more of you  Living breath of life come fill me up (F#m F#m D)

Lead guitarist comes in verse 1st time and does same thing from first verse

Repeat Chorus x2

At end of chours do this end riff
e|--------------------------------------------------------------------------|
B|--------------------------------------------------------------------------|
G|-14-16-13-14-11~-14-16-13-14-----14-16-13-14-11~--------------------------|
D|-----------------------------14~------------------------------------------|
A|--------------------------------------------------------------------------|
E|--------------------------------------------------------------------------|

And Then repeat verse 2 x1 with no guitar

then repeat chorus x4

then repeat the end riff


| /  slide up
|   slide down
| h  hammer-on
| p  pull-off
| ~  vibrato
| +  harmonic
| x  Mute note
============================================================================
Tap to rate this tab
# A B C D E F G H I J K L M N O P Q R S T U V W X Y Z