Song name
# A B C D E F G H I J K L M N O P Q R S T U V W X Y Z

Jeff Hanson - Hiding Behind The Moon tab

Easy guys, this being my first EVER tab please dont come down on it too hard. no-one 
can be arsed to write one for this song so i painfully found it out myself. it might not be 
accurate but feel free to comment.

STANDARD TUNING

CAPO 6TH FRET

     Am7    Em       F                Am7    Em        F

E|-----0-x------0x|----1-x----1-x--|------0------0-x|----1-x---------|
B|---1---x-------x|------x-1----x--|--0/1-x--------x|------x--3-1----|
G|-------x--0----x|--2---x------x-2|------x--0-----x|--2---x-------2-|
A|-------x-------x|------x------x--|------x--------x|------x--------3|
D|---0---x-------x|------x------x--|---0--x--------x|------x--0-0----|
E|-------x--0----x|--1---x-1----x-1|------x--0-----x|--1---x---------|


E|-----0-x------0x|----1-x---------|------0------0-x|----1-x----1x--1|
B|---1---x-------x|------x--3-1----|--0/1-x--------x|------x-1---x---|
G|-------x--0----x|--2---x-------2-|------x--0-----x|--2---x-----x---|
A|-------x-------x|------x-------3-|------x--------x|------x-----x---|
D|---0---x-------x|------x--0-0----|---0--x--------x|------x-----x---|
E|-------x--0----x|--1---x---------|------x--0-----x|--1---x-1---x--1|


     Em
E|---0-----0------|
B|---0----0-------|
G|---0---0--------|
A|---2--2---------|
D|---2------------|
E|---0------------|


Well if I were you I'd be wiser
To the sounds that make you up
And if only time was longer
I'd be gone
And if what you say is the answer
And for all you know it's true
Maybe I sleep too long
Or sometimes speak too soon

And remember the sun don't shine
And remember the sky's not blue
And if only I was you
I'd be right along here hiding behind the moon

Well I should have known you'd be leaving
Just as soon as you got here
And in time I'll fall around you
And disappear
And the thought of a day left to wander
In a time with eyes on me
Maybe I say too much
But with that we'll disagree


www.jeffhanson.net
Tap to rate this tab
 
# A B C D E F G H I J K L M N O P Q R S T U V W X Y Z