Song name
# A B C D E F G H I J K L M N O P Q R S T U V W X Y Z

Jeff Hanson - Hiding Behind The Moon tab

-------------------------------------------------------------------------------
			     HIDING BEHIND THE MOON - Jeff Hanson
-------------------------------------------------------------------------------

Tuning: Standard
Capo: 6


Chords: (low to high)
Am- x02210
Em- 022000
F- 133211
Fm- 133111
C- x32010
G- 320003


Note: The xxxxxx represent percussive "slaps" on the strings while muted

ALL CHORDS RELATIVE TO CAPO

Timing is not displayed

Intro:

   Am                                    Em                                 F
e|----0-----x-----------------0----x-------------------1----x--------1-------|
B|-1--------x----------------------x------------------------x-----1----------|
G|----------x-------------0--------x--------------2---------x----------------|
D|----------x----------------------x------------------------x----------------|
A|-0--------x----------------------x------------------------x----------------|
E|----------x-------------0--------x--------------1---------x-----1----------|

   Am                                    Em                                 F
e|-------0--x-----------------0----x-------------------1----x--------1-------|
B|--0h1-----x----------------------x------------------------x-----1----------|
G|----------x-------------0--------x--------------2---------x----------------|
D|----------x----------------------x------------------------x----------------|
A|----0-----x----------------------x------------------------x----------------|
E|----------x-------------0--------x--------------1---------x-----1----------|

   Am                                    Em                                 F
e|-------0--x-----------------0----x-------------------1----x----------------|
B|--0h1-----x----------------------x------------------------x-----3--1-------|
G|----------x-------------0--------x--------------2---------x-----------2----|
D|----------x----------------------x------------------------x-------------3--|
A|----0-----x----------------------x------------------------x-----0----------|
E|----------x-------------0--------x--------------1---------x----------------|

  Am                                    Em                                 F
e|----0-----x-----------------0----x-------------------1----x--------1-------|
B|-1--------x----------------------x------------------------x-----1----------|
G|----------x-------------0--------x--------------2---------x----------------|
D|----------x----------------------x------------------------x----------------|
A|-0--------x----------------------x------------------------x----------------|
E|----------x-------------0--------x--------------1---------x-----1----------|

  Fm
e|-1---------1---------------------------------------------------------------|
B|-1--------1----------------------------------------------------------------|
G|-1-------1-----------------------------------------------------------------|
D|-3------3------------------------------------------------------------------|
A|-3-----3-------------------------------------------------------------------|
E|-1-------------------------------------------------------------------------|

Verse 1:

   Am                                    Em                                 F
e|----0-----x-----------------0----x-------------------1----x--------1-------|
B|-1--------x----------------------x------------------------x-----1----------|
G|----------x-------------0--------x--------------2---------x----------------|
D|----------x----------------------x------------------------x----------------|
A|-0--------x----------------------x------------------------x----------------|
E|----------x-------------0--------x--------------1---------x-----1----------|

Well if I were                            you I'd be                             wiser

   Am                                    Em                                 F
e|-------0--x-----------------0----x-------------------1----x--------1-------|
B|--0h1-----x----------------------x------------------------x-----1----------|
G|----------x-------------0--------x--------------2---------x----------------|
D|----------x----------------------x------------------------x----------------|
A|----0-----x----------------------x------------------------x----------------|
E|----------x-------------0--------x--------------1---------x-----1----------|

To the sounds that                   make you                             up

   Am                                    Em                                 F
e|-------0--x-----------------0----x-------------------1----x--------1-------|
B|--0h1-----x----------------------x------------------------x-----1----------|
G|----------x-------------0--------x--------------2---------x----------------|
D|----------x----------------------x------------------------x----------------|
A|----0-----x----------------------x------------------------x----------------|
E|----------x-------------0--------x--------------1---------x-----1----------|

And if only                               time was                              longer   
                 I'd be

  Am                                    Em                                 F
e|-------0--x-----------------0----x-------------------1----x----------------|
B|--0h1-----x----------------------x------------------------x-----3--1-------|
G|----------x-------------0--------x--------------2---------x-----------2----|
D|----------x----------------------x------------------------x-------------3--|
A|----0-----x----------------------x------------------------x-----0----------|
E|----------x-------------0--------x--------------1---------x----------------|

gone

  Am                                    Em                                 F
e|----0-----x-----------------0----x-------------------1----x--------1-------|
B|-1--------x----------------------x------------------------x-----1----------|
G|----------x-------------0--------x--------------2---------x----------------|
D|----------x----------------------x------------------------x----------------|
A|-0--------x----------------------x------------------------x----------------|
E|----------x-------------0--------x--------------1---------x-----1----------|

And if what you                       say is the                              answer

   Am                                    Em                                 F
e|-------0--x-----------------0----x-------------------1----x--------1-------|
B|--0h1-----x----------------------x------------------------x-----1----------|
G|----------x-------------0--------x--------------2---------x----------------|
D|----------x----------------------x------------------------x----------------|
A|----0-----x----------------------x------------------------x----------------|
E|----------x-------------0--------x--------------1---------x-----1----------|

And for all you                         know it's                               true

   Am                                    Em                                 F
e|-------0--x-----------------0----x-------------------1----x--------1-------|
B|--0h1-----x----------------------x------------------------x-----1----------|
G|----------x-------------0--------x--------------2---------x----------------|
D|----------x----------------------x------------------------x----------------|
A|----0-----x----------------------x------------------------x----------------|
E|----------x-------------0--------x--------------1---------x-----1----------|


Maybe I sleep too                     long or                                 sometimes 
speak too

  Am                                    Em                                 F
e|-------0--x-----------------0----x-------------------1----x--------1-------|
B|--0h1-----x----------------------x------------------------x-----1----------|
G|----------x-------------0--------x--------------2---------x----------------|
D|----------x----------------------x------------------------x----------------|
A|----0-----x----------------------x------------------------x----------------|
E|----------x-------------0--------x--------------1---------x-----1----------|

soon

  Am                                    Em                                 F
e|-------0--x-----------------0----x-------------------1----x--------1-------|
B|--0h1-----x----------------------x------------------------x-----1----------|
G|----------x-------------0--------x--------------2---------x----------------|
D|----------x----------------------x------------------------x----------------|
A|----0-----x----------------------x------------------------x----------------|
E|----------x-------------0--------x--------------1---------x-----1----------|

 Fm
e|-1---------1---------------------------------------------------------------|
B|-1--------1----------------------------------------------------------------|
G|-1-------1-----------------------------------------------------------------|
D|-3------3------------------------------------------------------------------|
A|-3-----3-------------------------------------------------------------------|
E|-1-------------------------------------------------------------------------|

Chorus:

  C                                   Em                                     Am
e|-----0------------------------------------------0--------------------------|
B|--1------------------0---------------0-----1-----------1-----0-------------|
G|-----------------------------0---------------------------------------------|
D|-------2--------------------------2----------------2-------------2---------|
A|--3----------------------------------------0---------------0---------------|
E|--------------------------0------------------------------------------------|

And remember the              sun don't                          shine

 C                                   Em                                     Am
e|-----0------------------------------------------0--------------------------|
B|--1------------------0---------------0-----1-----------1-----0-------------|
G|-----------------------------0---------------------------------------------|
D|-------2--------------------------2----------------2-------------2---------|
A|--3----------------------------------------0---------------0---------------|
E|--------------------------0------------------------------------------------|


And remember the             sky's not                           blue

 C                                   Em                                     Am
e|-----0------------------------------------------0--------------------------|
B|--1------------------0---------------0-----1-----------1-----0-------------|
G|-----------------------------0---------------------------------------------|
D|-------2--------------------------2----------------2-------------2---------|
A|--3----------------------------------------0---------------0---------------|
E|--------------------------0------------------------------------------------|

And if only                         I were                               you


  F                                                 G
e|--------1------------------------------3-----------------------------------|
B|--1-----------1-------------------0-------------0--------------------------|
G|-------------------2-----------------------------------0-------------------|
D|-----------3---------3---------------------0----------------0--------------|
A|---------------------------------------------------------------------------|
E|--1-------------1-----------------3------------------3---------------------|

I'd be right along here                    hiding behind the

  Am                                    Em                                 F
e|-------0--x-----------------0----x-------------------1----x--------1-------|
B|--0h1-----x----------------------x------------------------x-----1----------|
G|----------x-------------0--------x--------------2---------x----------------|
D|----------x----------------------x------------------------x----------------|
A|----0-----x----------------------x------------------------x----------------|
E|----------x-------------0--------x--------------1---------x-----1----------|

moon

  Am                                    Em                                 F
e|-------0--x-----------------0----x-------------------1----x--------1-------|
B|--0h1-----x----------------------x------------------------x-----1----------|
G|----------x-------------0--------x--------------2---------x----------------|
D|----------x----------------------x------------------------x----------------|
A|----0-----x----------------------x------------------------x----------------|
E|----------x-------------0--------x--------------1---------x-----1----------|

the moon

  Am                                    Em                                 F
e|-------0--x-----------------0----x-------------------1----x--------1-------|
B|--0h1-----x----------------------x------------------------x-----1----------|
G|----------x-------------0--------x--------------2---------x----------------|
D|----------x----------------------x------------------------x----------------|
A|----0-----x----------------------x------------------------x----------------|
E|----------x-------------0--------x--------------1---------x-----1----------|

the moon

  Am                                    Em                                 F
e|-------0--x-----------------0----x-------------------1----x--------1-------|
B|--0h1-----x----------------------x------------------------x-----1----------|
G|----------x-------------0--------x--------------2---------x----------------|
D|----------x----------------------x------------------------x----------------|
A|----0-----x----------------------x------------------------x----------------|
E|----------x-------------0--------x--------------1---------x-----1----------|

the moon

 Fm
e|-1---------1---------------------------------------------------------------|
B|-1--------1----------------------------------------------------------------|
G|-1-------1-----------------------------------------------------------------|
D|-3------3------------------------------------------------------------------|
A|-3-----3-------------------------------------------------------------------|
E|-1-------------------------------------------------------------------------|


The song continues like this into the next verse and chorus


Lyrics:

Well I should have known you'd be leaving
Just as soon as you got here
And in time I'll fall around you
And disappear

And the thought of a day left to wander
In a time with eyes on me
Maybe I say too much
But then we'll disagree

And remember the sun don't shine
And remember the sky's not blue
And if only I was you
I'd be right along here hiding behind the moon

And remember the sun don't shine
And remember the sky's not blue
And if only I was you
I'd be right along here hiding behind the moon



************************************

| /   slide up
| \   slide down
| h   hammer-on
| p   pull-off
| ~   vibrato
| +   harmonic
| x   Mute note
| b   Bend
| pb  Pre-bend
| br  Bend release
| pbr Pre-bend release
| brb Bend release bend

************************************
Tap to rate this tab
 
# A B C D E F G H I J K L M N O P Q R S T U V W X Y Z