Song name
# A B C D E F G H I J K L M N O P Q R S T U V W X Y Z

Jeff Healey - Full Circle tab

Miley Cyrus - Full Circle
-------------------------

This is how I play Full Circle by Miley Cyrus, I think it sounds
pretty good. But instead of playing those simple eighth notes it
might be more interesting to accentuate it differently, just figure
something out ;) 

Tuning is Drop D (DADGBe)



### VERSE ### 00:00 ###
e|----------------------------------|
B|----------------------------------|
G|----------------------------------|  2x, palm muted
D|--8-(16x)-3-(16x)-5-(16x)-1-(8x)--|
A|--8-------3-------5-------1-------|
D|--8-------3-------5-------1-------|


### PRE-CHORUS ### 00:26 ###
e|---------------------------|
B|---------------------------|
G|---------------------------|
D|------------------3-(16x)--|
A|--6--5--3--1--0---3--------|
D|----------------5-3--------|


### CHORUS 1 ### 00:33 ###
e|-------------------------|      |-----------------------------------|
B|-------------------------|      |-----------------------------------|
G|-------------------------|  3x  |-----------------------------------|
D|--1-(8x)-8-(8x)-3-(16x)--|      |--4-(8x)-6-(8x)-8-(8x)-8---xx--xx--|
A|--1------8------3--------|      |--4------6------8------8---xx--xx--|
D|--1------8------3--------|      |--4------6------8------8---xx--xx--|



### VERSE ### 01:00 ###

### PRE-CHORUS ### 01:22 ###



### CHORUS 2 ### 01:29 ###
e|-------------------------|      |-------------------------------|
B|-------------------------|      |-----------------------11------|
G|-------------------------|  3x  |-----------------------10------|  2x
D|--1-(8x)-8-(8x)-3-(16x)--|      |--4-(8x)-6-(8x)-8-(8x)-8-(8x)--|
A|--1------8------3--------|      |--4------6------8------8-------|
D|--1------8------3--------|      |--4------6------8------8-------|


### INTERLUDE ### 02:03 ###
e|----------|----------|------------------|
B|----------|----------|------------------|
G|----------|----------|------------------|  3x
D|--4-------|--6-------|--8---------------|
A|--4-------|--6-------|--8---------------|
D|--4-------|--6-------|--8---------------|



### PRE-CHORUS ### 02:23 ###



### CHORUS 3 ### 02:29 ###
e|----------|----------|------------------|------------------------|
B|----------|----------|------------------|------------------------|
G|----------|----------|------------------|------------------------|
D|--1-------|--8-------|--3---------------|--1-(8x)-8-(8x)-3-(8x)--|
A|--1-------|--8-------|--3---------------|--1------8------3-------|
D|--1-------|--8-------|--3---------------|--1------8------3-------|


### CHORUS 4 & ENDING ### 02:41 ###
e|-------------------------|-----------------------------(2x)-|-------------------|
B|-------------------------|-----------------------11---------|-------------------|
G|-------------------------|-----------------------10---------|-------------------|
D|--1-(8x)-8-(8x)-3-(16x)--|--4-(8x)-6-(8x)-8-(8x)-8-(8x)-----|--4-(8x)-6-(8x)-8~~|
A|--1------8------3--------|--4------6------8------8----------|--4------6------8~~|
D|--1------8------3--------|--4------6------8------8----------|--4------6------8~~|
Tap to rate this tab
# A B C D E F G H I J K L M N O P Q R S T U V W X Y Z