Song name
# A B C D E F G H I J K L M N O P Q R S T U V W X Y Z

Jeff Healey - Feel Better tab

|--------------------------|
|--------------------------|
|--------------------------|
|--------------------------|
|---6--5--4--0--2--3-------|
|0-0--0--0—0---0--0--0-2b32|

|--------------------------|
|--------------------------|
|--------------------------|
|--------------------------|
|---6--5--4--0--2--3-------|
|0-0--0--0—0---0--0--0-2b32|
When your world is cold, and your day seem to drag on, forever,

|--------------------------|
|--------------------------|
|--------------------------|
|--------------------------|
|---6--5--4--0--2--3-------|
|0-0--0--0—0---0--0--0-2b32|
Feel like your soul were sold, for nothing, for nothing and you 

(Bass starts same run)
|--------------------------|
|--------------------------|
|--------------------------|
|--------------------------|
|---6--5--4--0--2--3-------|
|0-0--0--0—0---0--0--0-2b32|
Never, felt such loneliness, or emptiness, and your old friends are so hard to face, 

|--------------------------|
|--------------------------|
|--------------------------|
|--------------------------|
|---6--5--4--0--2--3-------|
|0-0--0--0—0---0--0--0-2b32|
                   
                                                                   A
That’s when you come to me, you come to me, when you need a safe embrace, 
                         B          G                            D                    
n' like a fool I give it up for you, there's nothing else I can do,

Chorus
                            Em              G          B                   A     F
If it make's it feel better, then tell me, tell me more lies, 
                            Em              G          B                   A     F
If it make's it feel better then use me for love in disguise,
                             (Riff)
If it make's it feel better,


 
When you lost your way, and you're tired, of what you've become,
An empty shell, where nothing dwells, and you’re dyin, n' feeling numb,
You decide that you’ll call on me, cuz you know I'm always free,

(Chorus)
(Bass & Guitar during lead)
|--------------------------|--------------------------|
|--------------------------|--------------------------|
|--------------------------|--------------------------|
|--------------------------|--------------------------|
|--------------------------|---6--5--4--0--2--3-------|
|----------------------2b32|0-0--0--0—0---0--0--0-2b32|

|--------------------------|--------------------------|
|--------------------------|--------------------------|
|--------------------------|--------------------------|
|--------------------------|--------------------------|
|---6--5--4--0--2--3-------|---6--5--4--0--2--3-------|
|0-0--0--0—0---0--0--0-2b32|0-0--0--0—0---0--0--0-2b32|


|--------------------------|
|--------------------------|
|--------------------------|
|--------------------------|
|---6--5--4--0--2--3-------|
|0-0--0--0—0---0--0--0-2b32|

A                                                      B                   G                 D    
Oh you know you burned me many times before, still I come back for more

                            Em              G          B                   A     F
If it make's it feel better, c'mon tell me, tell me more lies, 
                            Em              G          B                   A     F
If it make's it feel better,  you can use me for love in disguise,
                            Em              G          B                   A     F
If it make's it feel better, better, better, yah,
                            Em              G          B                   A     F
If it make's it feel better.
                            Em              G          B                   A     F
                            Em              G          B                   A     F
                            Em              G          B                   A     F
                            Em              G          B                   A     F
(Outre)
|--------------------------|--------------------------|
|--------------------------|--------------------------|
|--------------------------|--------------------------|
|--------------------------|--------------------------|
|---6--5--4--0--2--3-------|--------------------------|
|0-0------—------------2b32|0-------------------------|

Tap to rate this tab
# A B C D E F G H I J K L M N O P Q R S T U V W X Y Z