Song name
# A B C D E F G H I J K L M N O P Q R S T U V W X Y Z

Jeff Healey - As The Years Go Passing By tab

Song: As The Years Go Passing By
Artist: Jeff Healey
Album: Cover to Cover

E|------------------13--------11-----------------------|
B|------16-18b20~-----16b18------13p11-----------------|
G|---17-------------------------------10b12-10p8-10b12-|
D|17---------------------------------------------------|
A|-----------------------------------------------------|
E|-----------------------------------------------------|

E|---------------------11b13-11--8---------------------|
B|--11b13--11b13r11h8--------------11-8----------------|
G|--------------------------------------10b12-10-8-----|
D|-------------------------------------------------10--|
A|-----------------------------------------------------|
E|-----------------------------------------------------|

E|-----------------------------------------------------|
B|----------------------11-----------------------------|
G|--8--10p8--10----10b12--12r10--8----10-8----------8--|
D|---------------------------------10------10-10-------|
A|-----------------------------------------------------|
E|-----------------------------------------------------|

E|------------8-----------------------|----------------|
B|---------8-----11p8-----------------|----------------|
G|--10b12-------------10brp8----------|---------8------|
D|----------------------------10------|--8--10-----10--|
A|-------------------------------10---|----------------|
E|------------------------------------|----------------|

Tabbed by Máximo Mussini
Tap to rate this tab
 
# A B C D E F G H I J K L M N O P Q R S T U V W X Y Z