Guitaretab - guitar tabs
Song name
# A B C D E F G H I J K L M N O P Q R S T U V W X Y Z

Jeff Healey - Dont Let Your Chance Go By tab

----------------------------------------------------------------------------
			     don't let your chance go by - jeff healey
----------------------------------------------------------------------------
Tabbed by: Cris Riley

this is a brilliant song - by a brilliant artist its rele easy to play too
i kno i quite well as my band do a cover of it.

Tuning:standard

its basicly this blues riff most of the way through:
[ Tab from: http://www.guitaretab.com/j/jeff-healey/60033.html ]
e|-------------------|-3-3-0-3-0--|-------------------------------------|
B|-------------------|-3-3-2-3-0--|-------------------------------------|
G|-------------------|-0-0-2-0-x--|-------------------------------------|
D|-------------------|-0-0-2-0-2--|-------------------------------------|
A|-2-2p0-4-2-5-2-4-2-|-2-2-0-2-2--|-2-2p0-4-2-5-2-4-2-2-2p0-4-2-5-2-4-2-|
E|-0-0---0-0-0-0-0-0-|-3-x---3-0--|-0-0---0-0-0-0-0-0-0-0---0-0-0-0-0-0-|

then this part
 bridge:
   A                               E                       D
e|---------------------------------0-----------------------2-------|
B|-2-------------------------------0-----------------------3-------|
G|-2-------------------------------x-----------------------2-------|
D|-2-------------------------------2-----------------------0-------|
A|-0-------------------------------2-------------------------------|
E|---------------------------------0-------------------------------|
...instead of lookin the other way you ourta give her the eye ...

and then repeat the main riff for the chorus and backin for the solo

| /  slide up
| \  slide down
| h  hammer-on
| p  pull-off
| ~  vibrato
| +  harmonic
| x  Mute note
============================================================================
Related for Dont Let Your Chance Go By tab
Advertisement will be closed in 10 seconds