Song name
# A B C D E F G H I J K L M N O P Q R S T U V W X Y Z

Jeff Loomis - Shouting Fire At A Funeral tab

                              Shouting Fire at a Funeral
                                  by Jeff Loomis
                             on the album Zero Order Phase

Tuning: Half step down from standard tuning
Bend - b
harmonic - ~
slide - /
pull off - p
hammer on - h
bend shake- b~
palm mute- x under note

Most of it is here theres only one part missing from it but im almost finished with that part tho

intro Octave notes [Play Twice] sorry if its a little hard to understand, its a long riff =[
|--------------------------------------------------------------------|
|--------------------------------------------------------------------|
|--------------------------------------------------------------------|
|--------------------------------------------------------------------|
|---14-14-14-14--14---15-15-13-13--13---14-14-14-14--14-10-10-7-7--3-|
|--------------------------------------------------------------------|
|012-12-012-12-012-013-13-011-11-011-012-12-012-12-012-08-8-05-5-01--|


Octave notes same as the riff above but all palm muted [play twice]
|--------------------------------------------------------------------|
|--------------------------------------------------------------------|
|--------------------------------------------------------------------|
|--------------------------------------------------------------------|
|---14-14-14-14--14---15-15-13-13--13---14-14-14-14--14-10-10-7-7--3-|
|--------------------------------------------------------------------|
|012-12-012-12-012-013-13-011-11-011-012-12-012-12-012-08-8-05-5-01--|

Main riff
|---------------------------------------------------------------------|
|---------------------------------------------------------------------|
|8-9-11-11/14-12h14p12-11-8-8b~8-9-11-11/14-12h14p12-12-11-12-8-8b-4~-|
|---------------------------------------------------------------------|
|---------------------------------------------------------------------|
|---------------------------------------------------------------------|
|---------------------------------------------------------------------|

|--------------------------------------------------------------------|
|10-12-13-13-12-10-8-7-8-7-5--10-12-12h13-13-12-10-12-13-16-16b~-----|
|--------------------------------------------------------------------|
|--------------------------------------------------------------------|
|--------------------------------------------------------------------|
|--------------------------------------------------------------------|
|--------------------------------------------------------------------|

                                       {bend and shake at the last 18 note}
|----------------------------------------------------------------------------|
|10-12-13-13-12-10-8-7-78108787-10-12-13-13-12-10-12-13-10121312131513151718-|
|-----------------------------98b~-------------------------------------------|
|----------------------------------------------------------------------------|
|----------------------------------------------------------------------------|
|----------------------------------------------------------------------------|
|----------------------------------------------------------------------------|

Main Riff Rythm
|------------------------------------------------------|
|------------------------------------------------------|
|------------------------------------------------------|
|------------------------------------------------------|
|-3-------------------------2--------------------------|
|------------------------------------------------------|
|0-0-1-0-5-4-3-0-1-0-3-0-1-0-0-1-0-5-4-3-0-1-0-3-0-1-0-|
 x x x x x x x x x x x x x x x x x x x x x x x x x x x

|----------------------------------------------------------------------|
|----------------------------------------------------------------------|
|----------------------------------------------------------------------|
|----------------------------------------------------------------------|
|----------------------------------------------------------------------|
|-5-------------------------2------------------------------2-5-2-------|
|0-0-1-0-5-4-3-0-1-0-3-0-1-0-0-1-0-5-4-3-0-1-0-3-0-1-0--1-4-----4-1-b~-|
 x x x x x x x x x x x x x x x x x x x x x x x x x x x

Chorus Melody
|--------------------------------------------20-19-20-19b---------------|
|--17-17/19-17--19-17-19-20--20B20-19-20b~-17-----------20-20b-18-17-18-|
|16---------------------------------------------------------------------|
|-----------------------------------------------------------------------|
|-----------------------------------------------------------------------|
|-----------------------------------------------------------------------|
|-----------------------------------------------------------------------|

|--------------------------------------------20-19-20-17-19-20b-19-20-19-15--|b
|--17-17/19-17--19-17-19-20--20B20-19-20b~-17--------------------------------|
|16--------------------------------------------------------------------------|
|----------------------------------------------------------------------------|
|----------------------------------------------------------------------------|
|----------------------------------------------------------------------------|
|----------------------------------------------------------------------------|

Back to intro riff [All Muted] X2
|--------------------------------------------------------------------|
|--------------------------------------------------------------------|
|--------------------------------------------------------------------|
|--------------------------------------------------------------------|
|---14-14-14-14--14---15-15-13-13--13---14-14-14-14--14-10-10-7-7--3-|
|--------------------------------------------------------------------|
|012-12-012-12-012-013-13-011-11-011-012-12-012-12-012-08-8-05-5-01--|

Phrygian Minor lick ( not all is fast, just ran out of room to write)
|--7-8-7-7b-781187-7b-787--7---------------------1414b1211-111211-11---------|
|9b----------------------10-1087878108787--101213---------------13-131212/13-|
|----------------------------------------98----------------------------------|
|----------------------------------------------------------------------------|
|----------------------------------------------------------------------------|
|----------------------------------------------------------------------------|
|----------------------------------------------------------------------------|

|---------------------------------------------------------------------|
|101213-101213-121315-121315-131517-131517-151718-151718-20b-20b~-----|
|---------------------------------------------------------------------|
|---------------------------------------------------------------------|
|---------------------------------------------------------------------|
|---------------------------------------------------------------------|
|---------------------------------------------------------------------|

im almost finished, when its approved i will finish the last few riffs, i promise
Tap to rate this tab
# A B C D E F G H I J K L M N O P Q R S T U V W X Y Z