Song name
# A B C D E F G H I J K L M N O P Q R S T U V W X Y Z

Jeff Loomis - Miles Of Machine tab

Song: Miles Of Machine
Album:Zero Order Phase
Author: Jeff Loomis

Style of Beginning:Economy Picking/Sweep Picking
|-----------------------------------12p7-8~-s15p12---14p11-12|
|----------------------------12p8-9~--------------12~--------|
|------9p14-9--b12-r12-11p9----------------------------------|
|---10-------10------------9---------------------------------|
|12----------------------------------------------------------|
|------------------------------------------------------------|
Can't figure Out The sweep.Too fast.
|--------12------16p12---------16---22-19----18-19-20-21-|
|13-16-15--15-12------15-16s19---17~-----21~-------------|
|--------------------------------------------------------|
|--------------------------------------------------------|
|--------------------------------------------------------|
Another Sweep too hard to Transcribe.
I'll try to transcribe the rest but here's the part after it(:27-38).
|--------------------------------------------|
|--------------------------------------------|
|13~-8~-s10-s13~-s18-s13-11-13-14~-13-11-s18~|
|--------------------------------------------|
|--------------------------------------------|
|--------------------------------------------|

|--------------------------------------------|
|--------------------------------------------|
|-15-17-18-15-17-18-s13~-s10-s8-8h10p8-------|
|-------------------------------------11~-/--|
|--------------------------------------------|
|--------------------------------------------|

I will try to transcribe the rest of it in the new future.
Tap to rate this tab
# A B C D E F G H I J K L M N O P Q R S T U V W X Y Z