Song name
# A B C D E F G H I J K L M N O P Q R S T U V W X Y Z

Jeff Loomis - Miles Of Machines tab

Introductory Arpeggios   
Transcribed from Jeff Loomis' Rock House video:
http://www.youtube.com/watch?v=k1vQVdE4TAo

    E Minor Arpeggio

D#|-------------------------------12-7---/15-12----|
A#|------------------------12-8--------8--------12-|
F#|-----------------12-9--------9------------------|
C#|-------9-14-9---------9-------------------------|
G#|----10--------10--------------------------------|
D#|-12---------------------------------------------|

    B Major Arpeggio

D#|-14p11---------------------------11-14p11----/19p14---|
A#|-------12---------------------12----------12--------16~
F#|----------11---------------11-------------------------|
C#|-------------13---------13----------------------------|
G#|----------------14-9-14-------------------------------|
D#|------------------------------------------------------|

    E 7 Arpeggio

D#|-------------------16p12----19p16----18-19-20-21~|
A#|-------15-17-15----------15-------17-------------|
F#|-13h16----------12-------------------------------|
C#|-------------------------------------------------|
G#|-------------------------------------------------|
D#|-------------------------------------------------|

    A Major Arpeggio

D#|-21p17-------------------------------------------------|
A#|-------17----------------------------17-------22p17----|
F#|----------18----------------------18----18----------18~|
C#|-------------19----------------19----------19----------|
G#|----------------19----------19-------------------------|
D#|-------------------21-17-21----------------------------|

    C Dim Arpeggio

D#|-20-17-14----------------14-17-14----------14-20-17-14~|
A#|----------20-17-14-17-20----------20-17-20-------------|
F#|-------------------------------------------------------|
C#|-------------------------------------------------------|
G#|-------------------------------------------------------|
D#|-------------------------------------------------------|

    E Dim Arpeggio

D#|-18-15-12----------------12-15-12----------12-18-15-12~|
A#|----------18-15-12-15-18----------18-15-18-------------|
F#|-------------------------------------------------------|
C#|-------------------------------------------------------|
G#|-------------------------------------------------------|
D#|-------------------------------------------------------|

    B Major Arpeggio

D#|-19p14----------------------------14-19p14----17p14----|
A#|-------16----------------------16----------16-------16~|
F#|----------16----------------16-------------------------|
C#|-------------16----------16----------------------------|
G#|----------------18-14-18-------------------------------|
D#|-------------------------------------------------------|

Tap to rate this tab
 
# A B C D E F G H I J K L M N O P Q R S T U V W X Y Z