Song name
# A B C D E F G H I J K L M N O P Q R S T U V W X Y Z

Jeff Martin - I Love You tab

-------------------------------------------------------------------------------
			     I Love You - Jeff Martin
-------------------------------------------------------------------------------
Tabbed by: Shonie De La Rosa
Email: sheepheadfilms@yahoo.com

Tuning:DADGAD

Played on a 12 string, but a 6 string will work too. It sounds much better on a 12.

Strum up and down and it basically repeats through out the song. Listen to the song to 
the strummimg and timing right.

It took me forever to figure out the tuning for this song. This is the basics of the 
and I have not figured out the solo yet.
If anyone has the solo down, please add, also if this tab needs correction(s), feel free 
do so. Enjoy!


D|----0-0-0-0---0-0-0-0-0-0-----0-0-0-0--------------------------------------|
A|----2-2-2-2---6-6-7-7-7-7-----4-4-6-6--------------------------------------|
G|----0-0-0-0---0-0-0-0-0-0-----5-5-5-5--------------------------------------|
D|----0-0-------0-0-------------5-5-5-5--------------------------------------|
A|----0-0-------0-0-------------0-0-0-0--------------------------------------|
D|----0-0-------0-0-------------0-0-0-0--------------------------------------|

So a man carries metal
He carries gold
And it's more than he can handle
It's more than he can hold
Because it weighs him down
To a sink shallow grave
Where his bones are beaten by a heat wave
While here it rains all night
and it blows a sweet breeze
I think I'll call you up baby
I'll say please, baby please
And you know why?

Because I love you
Yes I love you
I love you
Oh child how I love you

But this dream machine
Makes it so hard to see
If I could stand outside of myself
I would watch it all come to me
I'd make this dream
Filter down to my fingers
I would rip out this fools head
Baby I would follow your scent that lingers
And you know why?

Because I love you
Yes I love you
I love you babe
Oh child I want to love you
How I want to love you
I'm gonna show you right now

It's that crashing
It's that booming of the white bomb
Come sure, come soon my love
Come leave me just one song
Just a song in the air
One dance, one beat
Just once for all
Just a stone for the marking
Before my dream, it falls
And don't let it fall now

I love you
Yes I love you
I love you babe
Oh baby, baby, baby
Please now
I love you
Yes I love you
I love you babe
I love you
Yes I do
I love you
===============================================================================
Tap to rate this tab
 
# A B C D E F G H I J K L M N O P Q R S T U V W X Y Z