Song name
# A B C D E F G H I J K L M N O P Q R S T U V W X Y Z

Jeff Wayne - Eve Of The War chords

Highlighted       Show chord diagrams
Artst:	Jeff Wayne
Song:	Eve of War

The acoustic stuff


      Dm    A7       A7    Dm       Dm    A7       A7    Dm
e|----1--1--0~-------0--0--1~-------1--1--0~-------0--0--1~-----------------|
B|----3--3--2~-------2--2--3~-------3--3--2~-------2--2--3~-----------------|
G|----2--2--0~-------0--0--2~-------2--2--0~-------0--0--2~-----------------|
D|----0--0--2~-------2--2--0~-------0--0--2~-------2--2--0~-----------------|
A|----0--0--0~-------0--0--0~-------0--0--0~-------0--0--0~-----------------|
E|--------------------------------------------------------------------------|


      C  C  C        Dm
e|----0--0--0~-------1--1--1~-----|
B|----1--1--1~-------3--3--3~-----|
G|----0--0--0~-------2--2--2~-----|
D|----2--2--2~-------0--0--0~-----|
A|----3--3--3~--------------------|
E|--------------------------------| 2x
Played during the high guitar notes


      C  C  C        Dm           B            Dm
e|----0--0--0~-------1--1--1~-----3--3--3------1--1--1-|
B|----1--1--1~-------3--3--3~-----3--3--3------3--3--3-|
G|----0--0--0~-------2--2--2~-----3--3--3------2--2--2-|
D|----2--2--2~-------0--0--0~-----3--3--3------0--0--0-|
A|----3--3--3~--------------------1--1--1--------------|
E|-----------------------------------------------------| 
The chances of anything coming from mars are a million to one he says


      C  C  C        Dm           B            Dm
e|----0--0--0~-------1--1--1~-----3--3--3------0-|
B|----1--1--1~-------3--3--3~-----3--3--3------1-|
G|----0--0--0~-------2--2--2~-----3--3--3------0-|
D|----2--2--2~-------0--0--0~-----3--3--3------2-|
A|----3--3--3~--------------------1--1--1------3-|
E|-----------------------------------------------| 
The chances of anything coming from mars are a million to one, but still they come.



Thas all

The rest is one big repeat
Tap to rate this tab
 
# A B C D E F G H I J K L M N O P Q R S T U V W X Y Z