Song name
# A B C D E F G H I J K L M N O P Q R S T U V W X Y Z

Jeff Wayne - Brave New World tab

-------------------------------------------------------------------------------
                             Brave New World - Jeff Wayne
-------------------------------------------------------------------------------
Tabbed by: Seank23
E-mail:

Tuning: Standard

Chorus Riff:

e|-------------11~--------------------------------------11~------------------|
B|------------------14-13-11--14-13hp14-11-------------------14-13-11--14~---|
G|---10br11-8---------------------------------10br11-8-----------------------|
D|---------------------------------------------------------------------------|
A|---------------------------------------------------------------------------|
E|---------------------------------------------------------------------------|

e|-------------11~-----------------------------------------------------------|
B|------------------14-13-11--14-13hp14-11-----------------------------------|
G|---10br11-8----------------------------------------------------------------|
D|---------------------------------------------------------------------------|
A|---------------------------------------------------------------------------|
E|---------------------------------------------------------------------------|

e|-------------11~-------13-13-13-13-13-13-13---13--11~----------------------|
B|------------------13/14-------------------------14-------------------------|
G|---10br11-8----------------------------------------------------------------|
D|---------------------------------------------------------------------------|
A|---------------------------------------------------------------------------|
E|---------------------------------------------------------------------------|


************************************

| /   slide up
| \   slide down
| h   hammer-on
| p   pull-off
| ~   vibrato
| +   harmonic
| x   Mute note
| b   Bend
| pb  Pre-bend
| br  Bend release
| pbr Pre-bend release
| brb Bend release bend

************************************
Tap to rate this tab
# A B C D E F G H I J K L M N O P Q R S T U V W X Y Z