Song name
# A B C D E F G H I J K L M N O P Q R S T U V W X Y Z

Jeff Williams - This Will Be The Day tab

Song    : This Will Be the Day (RWBY Opening)
Artist  : Jeff Williams feat. Casey Lee Williams
Tuning  : Drop D
Covered by DarkAngelWJ

Legend:
P.M. = Palm Muting
N.H. = Natural Harmonics
(/) = Slide Up


[Note that you might want to follow along with my playing due to the possibility that 
this is not exactly correct as my playing, or improvise :3 ]



After 2nd measure:


   P.M.-----|
E|--------------------------|
B|--------------------------|
G|--------------------------|
D|--0--0--0--3--2--0--2--3--|x4
A|--0--0--0--3--2--0--2--3--|
D|--0--0--0--3--2--0--2--3--|


   P.M.-----------------------|
E|----------------------------|
B|----------------------------|
G|----------------------------|
D|--0--0--0--0--0--0--0--0----|x4
A|----------------------------|
D|----------------------------|


   P.M.-----------------------|
E|----------------------------|
B|----------------------------|
G|----------------------------|
D|----------------------------|x3
A|--1--1--1--1--1--1--1--1----|
D|----------------------------|


   P.M.-----------------------|
E|----------------------------|
B|----------------------------|
G|----------------------------|
D|----------------------------|
A|--1--1--1--1----------------|
D|----------------------------|


   P.M.-----|
E|--------------------------|
B|--------------------------|
G|--------------------------|
D|--0--0--0--3--2--0--2--3--|x4
A|--0--0--0--3--2--0--2--3--|
D|--0--0--0--3--2--0--2--3--|



E|----------------------------------------------------|
B|----------------------------------------------------|
G|----------------------------------------------------|
D|--2--2--2--3--x--x---2--2--2--3--x--x---2--2--3--x--|
A|--1--1--1--1--x--x---1--1--1--1--x--x---1--1--1--x--|
D|----------------------------------------------------|


                                          N.H-|
E|---------------------------------------------|
B|---------------------------------------------|
G|---------------------------------------------|
D|--2--2--2--3--x--x--2------------------------|
A|--1--1--1--1--x--x--1----------3--------(3)--|
D|-------------------------2--3-----2--3-------|



E|--------------------------|
B|--------------------------|
G|--------------------------|
D|--------------------------|x2
A|--1--1--1--1--1--1--1--1--|
D|--------------------------|


E|--------------------------|
B|--------------------------|
G|--------------------------|
D|--------------------------|x2
A|--0--0--0--0--0--0--0--0--|
D|--------------------------|


E|----------------------------------------------|
B|----------------------------------------------|
G|----------------------------------------------|
D|--5--5--x--8--x--8--x--8--x--8--x--x--8----8--|
A|--5--5--x--5--x--5--x--5--x--5--x--x--5----5--|
D|--5--5--x--5--x--5--x--5--x--5--x--x--5----5--|


E|--------------------------------|
B|--------------------------------|
G|--------------------------------|
D|--10--10--10--10--10--10--x--x--|
A|--7---7---7---7---7---7---x--x--|
D|--7---7---7---7---7---7---x--x--|


E|--------------------------|
B|--------------------------|
G|--------------------------|
D|--5--5--5--5--6--6--6--6--|
A|--3--3--3--3--4--4--4--4--|
D|--------------------------|



   P.M.-|
E|-----------|
B|-----------|
G|-----------|
D|--0--0--0--|x7
A|--0--0--0--|
D|--0--0--0--|



  P.M.-----|      P.M-------------|
E|--------------|-----------------|
B|--------------|-----------------|
G|--------------|-----------------|
D|--0--0--0--3--|--3--3--3--3-----|x3 (only second measure)
A|--0--0--0--1--|--1--1--1--1-----|
D|--0--0--0-----|-----------------|


  ---------|      P.M.-----------------|     P.M.------------------|
E|--------------|--------------|------------|----------------------|
B|--------------|--------------|------------|----------------------|
G|--------------|--------------|------------|----------------------|
D|--3--3--3--3--|--3--3--3--3--|--3--3---2--|--2--2--2--2--2--2----|
A|--1--1--1--3--|--3--3--3--3--|--3--3---0--|--0--0--0--0--0--0----|
D|-----------3--|--3--3--3--3--|--3--3------|----------------------|


   P.M.-|
E|-----------|
B|-----------|
G|-----------|
D|--0--0--0--|x7
A|--0--0--0--|
D|--0--0--0--|



  P.M.-----|
E|--------------|
B|--------------|
G|--------------|
D|--0--0--0--3--|
A|--0--0--0--1--|
D|--0--0--0-----|


   P.M.---------------|     P.M.---------------|     P.M.---------------|     P.M.---------------------|
E|-------------|-----------|------------|-----------|------------|-----------|------------|------------|
B|-------------|-----------|------------|-----------|------------|-----------|------------|------------|
G|-------------|-----------|------------|-----------|------------|-----------|------------|------------|
D|--3--3--3--3-|-3--3----5-|-5--5--5--5-|-5--5----3-|-3--3--3--3-|-3--3----2-|-2--2--2--2-|-2--2----3--|
A|--1--1--1--1-|-1--1----3-|-3--3--3--3-|-3--3----1-|-1--1--1--1-|-1--1----0-|-0--0--0--0-|-0--0----1--|
D|-------------|-----------|------------|-----------|------------|-----------|------------|------------|



  P.M.----------------|     P.M.---------------|    P.M.--|    P.M.--|    P.M.--|     P.M.----------|
E|-------------|-----------|------------|----------|------------------------------------------------|
B|-------------|-----------|------------|----------|------------------------------------------------|
G|-------------|-----------|------------|----------|------------------------------------------------|
D|--3--3--3--3-|-3--3----5-|-5--5--5--5-|-5--5----3|--3--3--2---2--2---3---3--3---5---5--5------7/--|
A|--1--1--1--1-|-1--1----3-|-3--3--3--3-|-3--3----1|--1--1--0---0--0---1---1--1---3---3--3------5/--|
D|-------------|-----------|------------|----------|------------------------------------------------|
Tap to rate this tab
 
# A B C D E F G H I J K L M N O P Q R S T U V W X Y Z