Song name
# A B C D E F G H I J K L M N O P Q R S T U V W X Y Z

Jeff Williams - This Will Be The Day tab

BPM:190 4/4

Legend:
()-ghost note
b-bend
r-release
/-slide
~-vibrato
e|-------------------------------------------|----------------------------|
B|-------------------------------------------|-10-11-10-11-10-------------|
G|----------------------------------9-10-12--|-----------------12-10-12/--|
D|--/12---------------------8-10-12----------|----------------------------|
A|-------------------8-10-12-----------------|----------------------------|
E|-----------8-10-12-------------------------|----------------------------|

e|-------------------------------------------|----------------------------|
B|------13--15b--(15)~-----------------------|-10-11-10-11----------------|
G|--/14--------------------------------------|-------------/14-12-10-12b--|
D|-------------------------------------------|----------------------------|
A|-------------------------------------------|----------------------------|
E|-------------------------------------------|----------------------------|

e|---------------------------|---------------------------------|
B|---------------------------|----------13--13--13--13--13--13-|
G|-(12)b-12------------------|---------------------------------|
D|-------------15---14---14--|-(14)-----10--10--10--10--10--10-|
A|---------------------------|---------------------------------|
E|---------------------------|---------------------------------|

e|----------------------------------|--------------------------------|
B|--13------10---8-----10-----------|---------13--13--13--13--13--13-|
G|----------------------------------|--------------------------------|
D|--10-------7---5-----7------------|---------10--10--10--10--10--10-|
A|----------------------------------|--------------------------------|
E|----------------------------------|--------------------------------|

e|----------------------------------|---------------------------------------|
B|-15-------10---8------6-----------|-5---6-5-------------------------------|
G|------------------------------5-7-|----------5--5--7---5-5--7--9--7-5--7-5|
D|-12--------7---5------3-----------|---------------------------------------|
A|----------------------------------|---------------------------------------|
E|----------------------------------|---------------------------------------|

e|-------------------------------------------|------------------------------|
B|-------------------------------------------|------------------------------|
G|-(5)---------------------------------------|------------------------------|
D|----7--5-8-5--7--5-------------------------|------------------------------|
A|-------------------8--7--5---3--5--7--8--3-|-5-3-0---7b------------r------|
E|-------------------------------------------|-------3----------------5-----|

e|----------------------------------|---------------------------------------|
B|----------------------------------|---------------------------------------|
G|-------------------17---19-/-17---|--(17)---15------/17----15---14---15---|
D|----------------------------------|-------------19------------------------|
A|----------------------------------|---------------------------------------|
E|----------------------------------|---------------------------------------|

e|---------20b---|-(20)----r18--17--15--------------------------------------|
B|---------------|-----------------------18--17--18b------------------------|
G|-(15)----------|-----------------------------------------17--15--17-15-14-|
D|---------------|----------------------------------------------------------|
A|---------------|----------------------------------------------------------|
E|---------------|----------------------------------------------------------|

e|-------------12--13--12-----------|---------------------------------------|
B|-(14)---------------------13------|--15--------13-------------------------|
G|------------------------------10--|---------------12--14-----12----10-12--|
D|----------------------------------|---------------------------------------|
A|----------------------------------|---------------------------------------|
E|----------------------------------|---------------------------------------|

e|--------------------------------|----------------------------------------|
B|--------------------------6-6-5-|----------------------------------------|
G|-(12)----------10---------------|-7--5---7-5--7--5-----------------------|
D|--------------------------------|-------------------7--5----7-5-8--5-----|
A|--------------------------------|------------------------------------7-5-|
E|--------------------------------|----------------------------------------|

e|----------------------------------|---------------------------------------|
B|----------------------------------|---------------------------------------|
G|----------------------------------|---------------------------------------|
D|------------------5b-------r------|---------------------------------------|
A|-5--------5--7-8-------------8--5-|--(5)/---------------------------------|
E|-------8--------------------------|---------------------------------------|
Tap to rate this tab
# A B C D E F G H I J K L M N O P Q R S T U V W X Y Z