Song name
# A B C D E F G H I J K L M N O P Q R S T U V W X Y Z

Jeff Williams - Red Like Roses tab

-------------------------------------------------------------------------------
                Red Like Roses - Jeff Williams feat. Casey Williams
-------------------------------------------------------------------------------
Tabbed by: Nick Gunderman
E-mail: nickrgunderman@gmail.com

Tuning: Standard

e|-------------------14-12-------------------------14-12--|
B|-15-14-15-14-15-14-------15-14-15-14-15-14-15-14--------|
G|--------------------------------------------------------|
D|--------------------------------------------------------|
A|--------------------------------------------------------|
E|--------------------------------------------------------|

e|-------------------14-12--------------------------------|
B|-15-14-15-14-15-14-------15-14-15-14-12----12-----------|
G|----------------------------------------14----14--------|
D|--------------------------------------------------------|
A|--------------------------------------------------------|
E|----- --------------------------------------------------|

e|-------------------14-12--------------------------------|
B|-15-14-15-14-15-14-------15-14-15-14-15-14-15-14--------|
G|--------------------------------------------------------|
D|--------------------------------------------------------|
A|--------------------------------------------------------|
E|--------------------------------------------------------|

e|----------12-14-----------------------------------------|
B|-12-14-15-------15-14-15-12-----------------------------|
G|--------------------------------------------------------|
D|--------------------------------------------------------|
A|--------------------------------------------------------|
E|--------------------------------------------------------|

e|----------12-14-----------------------------------------|
B|-12-14-15-------15-14-15--------------------------------|
G|-------------------------14-----------------------------|
D|--------------------------------------------------------|
A|--------------------------------------------------------|
E|--------------------------------------------------------|
Tap to rate this tab
# A B C D E F G H I J K L M N O P Q R S T U V W X Y Z