Song name
# A B C D E F G H I J K L M N O P Q R S T U V W X Y Z

Jeff Williams - This Will Be The Day tab

-------------------------------------------------------------------------------
                             This Will Be The Day - Jeff Williams
-------------------------------------------------------------------------------
Tabbed by: Michael Yu

Tuning: Drop D

Tempo: 190 bpm

This is the rhythm guitar part.

 INTRO             VERSE 1
 *6 times          *4 times          *3 times
e|-----------------|-----------------|-----------------|-----------------|
B|-----------------|-----------------|-----------------|-----------------|
G|----------------*|----------------*|----------------*|-----------------|
D|----------------*|----------------*|----------------*|-----------------|
A|-0-0-0-3-2-0-2-3-|-5-5-5-5-5-5-5-5-|-1-1-1-1-1-1-1-1-|-1-1-1-1---------|
D|-0-0-0-3-2-0-2-3-|-----------------|-----------------|-----------------|

 *4 times
e|-----------------|-----------------|-----------------|-----------------|
B|-----------------|-----------------|-----------------|-----------------|
G|----------------*|-----------------|-----------------|-----------------|
D|----------------*|-2-----3---x-2---|---3---x-2---3---|-2-----3-----3---|
A|-0-0-0-3-2-0-2-3-|-1-----1---x-1---|---1---x-1---1---|-1-----1-----1---|
D|-0-0-0-3-2-0-2-3-|-----------------|-----------------|-----------------|

                   PRE-CHORUS
                   *2 times
e|-----------------|-----------------|-----------------|-----------------|
B|-----------------|-----------------|-----------------|-----------------|
G|-----------------|----------------*|-----------------|-----------------|
D|-----------------|----------------*|-2---------------|-----------------|
A|-----3-----------|-1-1-1-1-1-1-1-1-|-0-0-0-0-0-0-0-0-|-0-0-0-0-0-0---5-|
D|-2-3---2-3-2~~~~~|-----------------|-----------------|-------------6-5-|

e|-----------------|-----------------|-----------------|-----------------|
B|-----------------|-----------------|-----------------|-----------------|
G|-----------------|-----------------|-------------5---|-----------------|
D|-----------5---5-|-----5---------2-|---2-2-2-2-2---5-|---5-x-----------|
A|-----5-5-5-5---5-|-----5---------0-|---0-0-0-0-0---3-|---3-x-4~~~~~~~~~|
D|-----5---------5-|---5-5-5-5-5-5---|-----------------|-----------------|

 CHORUS
 *3 times
e|-----------------|-----------------|-----------------|-----------------|
B|-----------------|-----------------|-----------------|-----------------|
G|----------------*|-----------------|-----------------|-----------------|
D|----------------*|---------------10|-----------101010|-1010101010101010\
A|-0-0-0-0-0-0-0-0-|-0-0-0-0-0-0-0-8-|---8-8-8-8-8-8-8-|-8-8-8-8-8-8-8-8-|
D|-0-0-0-0-0-0-0-0-|-0-0-0-0-0-0-0-8-|---8-8-8-8-8-8-8-|-8-8-8-8-8-8-8-8-|

                                     *2 times
e|-----------------|-----------------|-----------------|-----------------|
B|-----------------|-----------------|-----------------|-----------------|
G|-----------------|-----------------|----------------*|-----------------|
D|\5-5-5-5-5-5-5-5-|-5-7-7-7-7-7-7-7-|----------------*|-----------10--10|
A|---3-3-3-3-3-3-3-|-3-5-5-5-5-5-5-5-|-0-0-0-0-0-0-0-0-|-0-0-0-0-0-0-0-0-|
D|---3-3-3-3-3-3-3-|-3-5-5-5-5-5-5-5-|-0-0-0-0-0-0-0-0-|-0-0-0-0-0-0-0-0-|

e|-----------------|-----------------|-----------------|-----------------|
B|-----------------|-----------------|-----------------|-----------------|
G|-----------------|-----------------|-----------------|-----------------|
D|-10101010------10|---10101010101010|-1010101010101010|---1010101010107-|
A|-0-0-0-0-0-0-0-8-|---8-8-8-8-8-8-10|-101010101010108-|---8-8-8-8-8-8-5-|
D|-0-0-0-0-0-0-0-8-|---8-8-8-8-8-8-8-|-8-8-8-8-8-8-8-8-|---8-8-8-8-8-8-0-|

e|-----------------|-----------------|-----------------|-----------------|
B|-----------------|-----------------|-----------------|-----------------|
G|-----------------|-----------------|-----------------|-----------------|
D|---7-7---------10|---1010------7-7-|---7-7-7-7-----8-|-------7-------8-|
A|---5-0-0-0-0-0-8-|---8-8---------7-|---7-7-7-7-----8-|---8-0-7---8-0-8-|
D|---0-0-0-0-0-0-8-|---8-8-0-0-0---7-|---7-7-7-7-7-7-8-|---0-0-7---0-0-8-|

                                     VERSE 2
                   *4 times          *4 times          *4 times
e|-----------------|-----------------|-----------------|-----------------|
B|-----------------|-----------------|-----------------|-----------------|
G|-----------------|----------------*|----------------*|----------------*|
D|-------10--101012|----------------*|----------------*|----------------*|
A|---8-8-10--101012|-0-0-0-3-2-0-2-3-|-5-5-5-5-5-5-5-5-|-1-1-1-1-1-1-1-1-|
D|---8-8-10--101012|-0-0-0-3-2-0-2-3-|-----------------|-----------------|

 *4 times
e|-----------------|-----------------|-----------------|-----------------|
B|-----------------|-----------------|-----------------|-----------------|
G|----------------*|-----------------|-----------------|-----------------|
D|----------------*|-2-----3---x-2---|---3---x-2---3---|-2-----3-----3---|
A|-0-0-0-3-2-0-2-3-|-1-----1---x-1---|---1---x-1---1---|-1-----1-----1---|
D|-0-0-0-3-2-0-2-3-|-----------------|-----------------|-----------------|

                   *3 times
e|-----------------|-----------------|-----------------|-----------------|
B|-----------------|-----------------|-----------------|-----------------|
G|-----------------|----------------*|-----------------|-----------------|
D|-----------------|----------------*|-----------------|-----------5---5-|
A|-----3-----------|-----------------|---------------5-|-----5-5-5-5---5-|
D|-2-3---2-3-2~2~3~|-----------------|---------------5-|-----5---------5-|

                                                       SOLO
                                                       *3 times
e|-----------------|-----------------|-----------------|-----------------|
B|-----------------|-----------------|-----------------|-----------------|
G|-----------------|-------------5---|-----------------|----------------*|
D|-----5---------2-|---2-2-2-2-2---5-|---5-x-----------|----------------*|
A|-----5---------0-|---0-0-0-0-0---3-|---3-x-4~~~~~~~~~|-0-0-0-0-0-0-0-0-|
D|---5-5-5-5-5-5---|-----------------|-----------------|-0-0-0-0-0-0-0-0-|

e|-----------------|-----------------|-----------------|-----------------|
B|-----------------|-----------------|-----------------|-----------------|
G|-----------------|-----------------|-----------------|-----------------|
D|---------------10|-----------101010|-1010101010101010\\5-5-5-5-5-5-5-5-|
A|-0-0-0-0-0-0-0-8-|---8-8-8-8-8-8-8-|-8-8-8-8-8-8-8-8-|---3-3-3-3-3-3-3-|
D|-0-0-0-0-0-0-0-8-|---8-8-8-8-8-8-8-|-8-8-8-8-8-8-8-8-|---3-3-3-3-3-3-3-|
                   *2 times
e|-----------------|-----------------|-----------------|-----------------|
B|-----------------|-----------------|-----------------|-----------------|
G|-----------------|----------------*|-----------------|-----------------|
D|-5-7-7-7-7-7-7-7-|----------------*|-----------10--10|-10101010------10|
A|-3-5-5-5-5-5-5-5-|-0-0-0-0-0-0-0-0-|-0-0-0-0-0-0-0-0-|-0-0-0-0-0-0-0-8-|
D|-3-5-5-5-5-5-5-5-|-0-0-0-0-0-0-0-0-|-0-0-0-0-0-0-0-0-|-0-0-0-0-0-0-0-8-|

e|-----------------|-----------------|-----------------|-----------------|
B|-----------------|-----------------|-----------------|-----------------|
G|-----------------|-----------------|-----------------|-----------------|
D|---10101010101010|-1010101010101010|---1010101010107-|---7-7---------10|
A|---8-8-8-8-8-8-10|-101010101010108-|---8-8-8-8-8-8-5-|---5-0-0-0-0-0-8-|
D|---8-8-8-8-8-8-8-|-8-8-8-8-8-8-8-8-|---8-8-8-8-8-8-0-|---0-0-0-0-0-0-8-|

e|-----------------|-----------------|-----------------|-----------------|
B|-----------------|-----------------|-----------------|-----------------|
G|-----------------|-----------------|-----------------|-----------------|
D|---1010------7-7-|---7-7-7-7-----8-|-------7-------8-|-------10--101012|
A|---8-8---------7-|---7-7-7-7-----8-|---8-0-7---8-0-8-|---8-8-10--101012|
D|---8-8-0-0-0---7-|---7-7-7-7-7-7-8-|---0-0-7---0-0-8-|---8-8-10--101012|

 BRIDGE
 *12 times         *6 times          *4 times
e|-----------------|-----------------|-----------------|-----------------|
B|-----------------|-----------------|-----------------|-----------------|
G|----------------*|----------------*|----------------*|-----------------|
D|----------------*|----------------*|----------------*|-7-8-7-8-7-----7-|
A|-5-5-5-5-5-5-5-5-|-0-0-0-3-2-0-2-3-|-5-5-5-5-5-5-5-5-|-----------108---|
D|-----------------|-0-0-0-3-2-0-2-3-|-----------------|-----------------|

                   CHORUS
                   *3 times 
e|-----------------|-----------------|
B|-----------------|-----------------|
G|-------9---------|----------------*|
D|---10------------|----------------*|
A|-----------------|-0-0-0-0-0-0-0-0-|
D|-----------------|-0-0-0-0-0-0-0-0-|

e|-----------------|-----------------|-----------------|-----------------|
B|-----------------|-----------------|-----------------|-----------------|
G|-----------------|-----------------|-----------------|-----------------|
D|---------------10|-----------101010|-1010101010101010\\5-5-5-5-5-5-5-5-|
A|-0-0-0-0-0-0-0-8-|---8-8-8-8-8-8-8-|-8-8-8-8-8-8-8-8-|---3-3-3-3-3-3-3-|
D|-0-0-0-0-0-0-0-8-|---8-8-8-8-8-8-8-|-8-8-8-8-8-8-8-8-|---3-3-3-3-3-3-3-|
                   *2 times
e|-----------------|-----------------|-----------------|-----------------|
B|-----------------|-----------------|-----------------|-----------------|
G|-----------------|----------------*|-----------------|-----------------|
D|-5-7-7-7-7-7-7-7-|----------------*|-----------10--10|-10101010------10|
A|-3-5-5-5-5-5-5-5-|-0-0-0-0-0-0-0-0-|-0-0-0-0-0-0-0-0-|-0-0-0-0-0-0-0-8-|
D|-3-5-5-5-5-5-5-5-|-0-0-0-0-0-0-0-0-|-0-0-0-0-0-0-0-0-|-0-0-0-0-0-0-0-8-|

e|-----------------|-----------------|-----------------|-----------------|
B|-----------------|-----------------|-----------------|-----------------|
G|-----------------|-----------------|-----------------|-----------------|
D|---10101010101010|-1010101010101010|---1010101010107-|---7-7---------10|
A|---8-8-8-8-8-8-10|-101010101010108-|---8-8-8-8-8-8-5-|---5-0-0-0-0-0-8-|
D|---8-8-8-8-8-8-8-|-8-8-8-8-8-8-8-8-|---8-8-8-8-8-8-0-|---0-0-0-0-0-0-8-|

e|-----------------|-----------------|-----------------|-----------------|
B|-----------------|-----------------|-----------------|-----------------|
G|-----------------|-----------------|-----------------|-----------------|
D|---1010------7-7-|---7-7-7-7-----8-|-------7-------8-|-------10--101012\
A|---8-8---------7-|---7-7-7-7-----8-|---8-0-7---8-0-8-|---8-8-10--101012\
D|---8-8-0-0-0---7-|---7-7-7-7-7-7-8-|---0-0-7---0-0-8-|---8-8-10--101012\

B|-----------------|
G|-----------------|
D|-\---------------|
A|-\---------------|
D|-\---------------|

************************************

| /   slide up
| \   slide down
| h   hammer-on
| p   pull-off
| ~   vibrato
| +   harmonic
| x   Mute note

************************************
Tap to rate this tab
 
# A B C D E F G H I J K L M N O P Q R S T U V W X Y Z