Song name
# A B C D E F G H I J K L M N O P Q R S T U V W X Y Z

Jeff - Kingdom Hearts tab

This is my first tab

e|-8----10-8-----10-11-10-15-13-12--|
B|---8-6-----8-6--------------------|
G|----------------------------------|
D|----------------------------------|
A|----------------------------------|
E|----------------------------------|

e|-8----10-8-----10-11-10-15-13-12--|
B|---8-6-----8-6--------------------|
G|----------------------------------|
D|----------------------------------|
A|----------------------------------|
E|----------------------------------|

e|-8----10-8-----10-11-10-15-13-12--|
B|---8-6-----8-6--------------------|
G|----------------------------------|
D|----------------------------------|
A|----------------------------------|
E|----------------------------------|

enjoy!
Tap to rate this tab
 
# A B C D E F G H I J K L M N O P Q R S T U V W X Y Z