Song name
# A B C D E F G H I J K L M N O P Q R S T U V W X Y Z

Jefferson Airplane - Other Side Of This Life chords

Intro
G|---------------------------------------------------------------|
D|-----------------1-2----------------1-2----------------1-2-----|
A|--44-0-2-1-0-1-2-----44-0-2-1-0-1-2-----44-0-2-1-0-1-2---------|
E|---------------------------------------------------------------|
 |                                       (strum each chord once)
e|---------------------------------------------------------------|
B|----------------------------------------3~~~~--1~~~~~--8~~~~---|
G|----------------------------------------4~~~~--2~~~~~--9~~~~---|
D|----------------------------------------5~~~~--3~~~~~--10~~~---|
A|---------------------------------------------------------------|
E|---------------------------------------------------------------|
                                          Play above twice

0:19
   ^v^v^ v       (funk rhythm, listen to record for actual rhythm)
e|-x7x7x/555555--x7x7x777777--|
B|-x8x7x/666666--x8x8x788888--|
G|-x7x7x/555555--x7x7x777777--|
D|----------------------------|
A|----------------------------|
E|----------------------------| The guitar is just a lot of
                                transitions between these two chords-
                                mess around with it.


Verse:
    v^v^v ^
e|-------------------------------------------|
B|--x3x3x/1~~-x3x3x/1~~-x3x3x/1~~-x3x3x/1~~--|
G|--x4x4x/2~~-x4x4x/2~~-x4x4x/2~~-x4x4x/2~~--|
D|--x5x5x/3~~-x5x5x/3~~-x5x5x/3~~-x5x5x/3~~--|
A|-------------------------------------------|
E|-------------------------------------------|


Chorus:
These are the chords for the chorus in the order they are played. Listen to the 
for rhythm, number of strums etc.
e|------------------------------------------------------|
B|--x8--------1--------------x3~~~~~~~~~~~~~~~~~~~~~----|
G|--x9--------2--------------x4~~~~~~~~~~~~~~~~~~~~~----|
D|--x10-------3--------------x5~~~~~~~~~~~~~~~~~~~~~----|
A|------------------------------------------------------|
E|------------------------------------------------------|
    Thatís the other side of this life yeah Iíve been leadin

e|------------------------------------------------------|
B|--x8--------1--------------x3~~~~~~~~~~~~~-~~~~~~-----|
G|--x9--------2--------------x4~~~~~~~~~~~~~~~~~~-~-----|
D|--x10-------3--------------x5~~~~~~~~~~~~~~~~~~~~-----|
A|------------------------------------------------------|
E|------------------------------------------------------|
     Thatís the other side of this life

Bridge:
(each chord strummed once)
e|--------------------------------------|
B|--3~~~~-1~~~~-8~~~--3~~~~-1~~~~-8~~~--|
G|--4~~~~-2~~~~-9~~~--4~~~~-2~~~~-9~~~--|
D|--5~~~~-3~~~~-10~~--5~~~~-3~~~~-10~~--|
A|--------------------------------------|
E|--------------------------------------|

Repeat Verse
Repeat Chorus
Solo based on chords
Repeat Verse
Repeat Chorus
Tap to rate this tab
 
# A B C D E F G H I J K L M N O P Q R S T U V W X Y Z