Song name
# A B C D E F G H I J K L M N O P Q R S T U V W X Y Z

Jefferson Airplane - Young Girls Sunday Blues tab

YOUNG GIRL’S SUNDAY BLUES- AFTER BATHING AT BAXTERS (1967)
This song is generally really messy, but if you buy the deluxe edition of the album it
an instrumental of it which makes it easier to figure out. It sounds to me like Paul is
the chords through a wah petal, but I could be wrong. I usually just play them and mute 
with my hand really quickly.

Intro:
   Jorma
e|--------------------------|
B|--5v~--8v~----x5v~--8v~---|
G|--------------x-----------|
D|--5v~----8v~--x5v~----8v~-|
A|--------------------------|
E|--------------------------|
 | Paul
e|--------------------------|
B|-----6------------6-------|
G|-----0------------0-------|
D|-----7------------7-------|
A|--------------------------|
E|--------------------------|

    Jorma
e|---------------------------------------------------|
B|---5--5--5----6--6--6----8--8--8----6--6--6--------|
G|----0--0-------0--0-------0--0-------0--0----------|
D|--5--5--5----7--7--7----8--8--8----7--7--7---------|
A|---------------------------------------------------|
E|---------------------------------------------------|
 | Paul
e|---------------------------------------------------|
B|--5--5-------6--6-------8--8-------6--6------------|
G|--0--0-------0--0-------0--0-------0--0------------|
D|--5--5-------7--7-------8--8-------7--7------------|
A|---------------------------------------------------|
E|---------------------------------------------------|
  In my heart I have a feeling, and I don't know what I'm gonna do
  What should I do? Oh, what a beautiful world, the world; What should I do?

   Bb
e|--6-------6-------6-------6-------6-------6-------6-----6------6---|
B|--6-------6-------6-------6-------6-------6-------6-----6------6---|
G|--7-------7-------7-------7-------7-------7-------7-----7------7---|
D|--8-------8-------8-------8-------8-------8-------8-----8------8---|
A|--8-------8-------8-------8-------8-------8-------8-----8------8---|
E|-------------------------------------------------------------------|
  Don't you know what I have found? Maybe you've found it too;

e|------------------------------------------------------|
B|---5--5--5-------6--6--6------------------------------|
G|----0--0----------0--0--------------------------------|
D|--5--5--5-------7--7--7-------------------------------|
A|------------------------------------------------------|
E|------------------------------------------------------|
 | Paul                           Eb
e|------------------------------------------------------|
B|--5--5----------6--6------------8-8-8-8---------------|
G|--0--0----------0--0------------8-8-8-8---------------|
D|--5--5----------7--7------------8-8-8-8---------------|
A|--------------------------------6-6-6-6---------------|
E|------------------------------------------------------|
   Today is made up yesterday and tomorrow


   Jorma
e|---------------------------------------------------|
B|---5--5--5----6--6--6----8--8--8----6--6--6--------|
G|----0--0-------0--0-------0--0-------0--0----------|
D|--5--5--5----7--7--7----8--8--8----7--7--7---------|
A|---------------------------------------------------|
E|---------------------------------------------------|
 | Paul
e|---------------------------------------------------|
B|--5--5-------6--6-------8--8-------6--6------------|
G|--0--0-------0--0-------0--0-------0--0------------|
D|--5--5-------7--7-------8--8-------7--7------------|
A|---------------------------------------------------|
E|---------------------------------------------------|
  Young Girl Sunday Blues, and all her sorrow


Solo:
It is in the pentatonic starting at 8, which would be:
e|-----------------------------------------11--13--15-------|
B|---------------------------------11--13-------------------|
G|----------------------8--10--12---------------------------|
D|---------------8--10--------------------------------------|
A|-----6--8--10---------------------------------------------|
E|--8-------------------------------------------------------|

Maybe something like:
                               1:36
e|-------------11-13b-13-11---------------------------------|
B|---11-11v~-11------------11~------------------------------|
G|-12--------------------------12p10----------8-10----------|
D|----------------------------------10p8~---10--------------|
A|----------------------------------------10----------------|
E|----------------------------------------------------------|

The outro is also in the pentatonic starting at 8- something like:

e|---------------------------------------------------------|
B|---------------------------------------------------------|
G|---------------------------------------------------------|
D|-10--10--10-----10-----10----10----10----10--------10-10-|
A|---8---8---8------8------8-----8-----8-----8----8--8--8--|
E|----8---8---8------8------8-----8-----8-----8------8--8--|
 |
e|---------------------------------------------------------|
B|---------13--13-13--13-13----13----13----13--------13-13-|
G|-----------11-----11-----11----11----11----11---11-11-11-|
D|---------------------------11----11----11----11----11-11-|
A|---------------------------------------------------------|
E|---------------------------------------------------------|
Tap to rate this tab
# A B C D E F G H I J K L M N O P Q R S T U V W X Y Z