Song name
# A B C D E F G H I J K L M N O P Q R S T U V W X Y Z

Jefferson Airplane - Comin Back To Me tab

COMIN' BACK TO ME
Jefferson Airplane

I'm pretty sure that this is all right, with the exception of the bridge.
I couldn't hear the guitar very well over the vocals during the bridge, so 
it may be incorrect.

Drop your tuning a half step if you want to play with the recording.


Verse:

  e||-----------------|-----------------|-----------------|-----------------|
  B||-----3-----3-----|-----1-----1-----|-----3-----3-----|-----1-----1-----|
4 G||---0-----0-----0-|---0-----0-----0-|---0-----0-----0-|---0-----0-----0-|
- D||-4-----4-----4---|-2-----2-----2---|-4-----4-----4---|-2-----2-----2---|
4 A||-----------------|-----------------|-----------------|-----------------|
  E||-----------------|-----------------|-----------------|-----------------|


e||-----------------|-----------------|
B||-----2-----2-----|-----1-----1-----|
G||---1-----1-----1-|---0-----0-----0-|
D||-0-----0-----0---|-2-----2-----2---|
A||-----------------|-----------------|
E||-----------------|-----------------|

Pre-Chorus (repeated 3x) :

  e||-------------| |-----------------|
  B||-----0-----0-| |-----0-----0-----|
3 G||---2-----4---|4|---5-----5-----0-|
- D||-2-----4-----|-|-5-----5-----5---|
4 A||-------------|4|-----------------|
  E||-------------| |-----------------|

Chorus:

e||-----------------|-----------------|
B||-----3-----3-----|-----3-----3-----|
G||---4-----4-----4-|---4-----4-----0-|
D||-5-----5-----5---|-5-----5-----5---|
A||-----------------|-----------------|
E||-----------------|-----------------|

Bridge:

e||-----3-----3-----|-----1-----1-----|
B||---1-----1-----1-|---1-----1-----1-|
G||-2-----2-----2---|-2-----2-----2---|
D||-----------------|-----------------|
A||-----------------|-----------------|
E||-----------------|-----------------|
Tap to rate this tab
# A B C D E F G H I J K L M N O P Q R S T U V W X Y Z