Jefferson Airplane - White Rabbit chords

Highlighted       Show chord diagrams
Most of the tabs on here got certain parts right, so I'm just combining the correct 
parts from each, as well as fixing the bass intro which no one can get right.



Bass Intro

------------------------------------------------------------------------|
------------------------------------------------------------------------|
------------------------------------------------------------------------|
---4-4-------4---4-4-4-------4---4-5-5-------5---5-5-5-------5---5-4----|
-------4-4-4---4-------4-4-4---4-------5-5-5---5-------5-5-5---5--------|
------------------------------------------------------------------------|

Intro Solo

----------------------------------------------------------|
---------------------7H8P7--------------------------------|
----------------8/9--------9--7-6---4\3----3--------------|
----4-----4/5/7--------------------------4----------------|
------4/5-------------------------------------------------|
----------------------------------------------------------|


----------------------------------------------------------|
----------------------------------------------------------|
----------------------------------------------------------|
----4-4h5p4-------4-5-4-----------------------------------|
-----------5-4-4-5-----5-4-2/4-5-4-2-4-2-4p2-2-1----------|
-------------------------------------------------3-2------|

Chords


F#                           G
One pill makes you larger and one pill makes you small
        F#                                 G
And the ones that mother gives you don't do anything at all
       A      C        D    A
Go ask Alice when she's ten feet tall
F#                           G
And if you go chasing rabbits and you know you're gonig to fall.
       A      C        D    A
Go ask Alice when she's just small.

      E                               A
When men on the chessboard get up and tell you where to go..
E                                                   A
And you've just have some kind of mushroom and your mind is moving low.

       F#
Go ask Alice   I think she'll know

F#                              G
When logic and proportion   have fallen  ( ?)ly dead.
        F#                                           G
And the white knight is talking backwards and the red queen's off with her head
  A      C          D          A
Remember   what the door mouse said
E         A
Feed your head
E         A
Feed your head
Tap to rate this tab
 
# A B C D E F G H I J K L M N O P Q R S T U V W X Y Z