Song name
# A B C D E F G H I J K L M N O P Q R S T U V W X Y Z

Jefferson Starship - Jane tab

Help us improve GuitareTab! Take a short survey!
Highlighted       Show chord diagrams
Jane
Jefferson Starship
From the Album-"Freedom At Point Zero"
1979
Written by David Freiberg/Paul Kantner/Craig Chaquico
Tabbed by Ray Scheidler 


Chords:

    Em     G     D     A    D/F#  
  F#/A#
E----------2-----2-------------------------2-----|
B----------------3-----3-----3-------------2-----|
G----------------2-----3-----2------4------3-----|
D----2-----------------3------------2------------|
A----2-----3-------------------------------1-----|
E----------2-----------------2------4------------|


     B    C#m   F#m   A#7
E----2-----4-----2-------------------------------|
B----------5-----2-----2-------------------------|
G----4-----6-----2-------------------------------|
D----4-----6-----4-----2-------------------------|
A----2-----4-----4-----1-------------------------|
E----------------2-------------------------------|

Intro:


E---------12--10--------10---------10--12--------|
B-----------------8---------8--------------------|
G--9--12-------------9---------9-----------------|
D------------------------------------------------|
A------------------------------------------------|
E------------------------------------------------|


E---------12--10--------10---------10--12--------|
B-----------------8---------8--------------------|
G--9--12-------------9---------9-----------------|
D------------------------------------------------|
A------------------------------------------------|
E------------------------------------------------|

E---------15--14---------14-----------14--15-----|
B-----12---------15--12------15--12--------------|
G--12--------------------------------------------|
D------------------------------------------------|
A------------------------------------------------|
E------------------------------------------------|

E---------15--14---------14-----------14--15-----|
B-----12---------15--12------15--12--------------|
G--12--------------------------------------------|
D------------------------------------------------|
A------------------------------------------------|
E------------------------------------------------|


B5 B5 D5


  Em        G                 D        A
E--3--3--3--7--7--7--7--7--7--5--5--5--5--5--5--5-|
B--5--5--5--8--8--8--8--8--8--7--7--7--5--5--5--5-|
G--4--4--4--7--7--7--7--7--7--7--7--7--6--6--6--6-|
D-------------------------------------------------|
A-------------------------------------------------|
E-------------------------------------------------|


Em  G  D D  A A    Em  
 D D  A A


Em        G           D
Jane you say it's all over

     A      Em  G   D D
For you and me girl

  A     A  Em       G          D
There's a time for love and a time

 D   A  A      Em    G  D 
 A A
For letting it be baby

Em           D/F#      G         D/F# Em
Jane you're playing a game called

Em             D/F#         G       D/F# Em
Called hard to get by it's real name

Em        D/F#       G
Makin' believe that you just don't

 E/G#   A F#/A# B       Em 
D D A A Em G D D AA
Feel the same    oh Jane

Em            G         D
Jane you're playing a game

     A         Em  G   D D
You never can win girl

A A        Em     G          D    D
 You're stayin' away so I'll ask you

  A    A   Em     G  D D  AA
Where you been baby

Em     D/F#        G   D/F# Em
Like a cat and a mouse

Em           D/F#      G        D/F#
From door to door and house to house

Em           D/F#             G
Don't you pretend you don't know

         E/G#      A F#/A# B
What I'm talking about


C#m             F#m              C#m     F#m
Were all those nights we spent together

C#m     F#m                   C#m   F#m
Only because you didn't know better

   F#m                   E/G#
Oh Jane you're playing a game

                  A              A#7 B B B B
You're playing a game playing a game

Em G D D A A  Em 
D D A A  Em G D A A


    Em           G        D
Oh Jane you're playing a game

D   A   A       Em  G  D 
 A A
Of hide and go seek

 Em           G          D  D
Jane you're playing for fun

    A   A       Em  G  D D  AA
But I play for keeps

Em    G          D       A      Em 
D D A A
Jane Jane Jane that's a game on me

Em    G          D     A           Em 
D D A A
Jane Jane Jane that's so plain to see

Em    G         D D A A
Jane Jane Jane          (Repeat and fade)
Related for Jane tab