Song name
# A B C D E F G H I J K L M N O P Q R S T U V W X Y Z

Jefferson Starship - Save Your Love tab

   save your love ta by jefferson starship

    traduit en tablature par Steve Morin 



|--------------------------------|--------------------------------|
|--------------------------------|--------------------------------|
|9-------------------------------|5---------------------------7b9-|
|9-------------------------------|5-------------------------------|
|7-------------------------------|3-------------------------------|
|0-------------------------------|--------------------------------|
 
 |       |       |       |        |       |       |       |        
|--------------------------------|--------------------------------|
|--------------------------------|----------------------------8---|
|7---------------------------9b11|9-----------------------7h9-----|
|--------------------------------|--------------------------------|
|--------------------------------|--------------------------------|
|--------------------------------|--------------------------------|
 
 |       |       |       |        |       |       |       |        
|----------------------------8b--|----------------------------8---|
|8/10--------------------8h10----|10----------------------8h10----|
|--------------------------------|--------------------------------|
|--------------------------------|--------------------------------|
|--------------------------------|--------------------------------|
|--------------------------------|--------------------------------|
 
 |       |       |       |        |       |       |       |        
|8/10----------------------------|--------------------------------|
|--------------------------8-----|10----------------8---108p5-----|
|------------------------9-------|----------------------------7p5-|
|--------------------------------|--------------------------------|
|--------------------------------|--------------------------------|
|--------------------------------|--------------------------------|
 
 |       |       |       |        |       |       |       |        
|--------------------------------|------------------8-8-8-8-10--12|
|8-------------------------------|--8-8-8-8/10101010--------------|
|--7-----9-------9h7-------7---7-|9-------------------------------|
|--------------------107h10--10--|--------------------------------|
|--------------------------------|--------------------------------|
|--------------------------------|--------------------------------|
 
 |       |       |       |        |       |       |       |        
|10----8-8-----------------------|--------------------------------|
|--------------------------------|--------------------------------|
|--------------------------------|--------------------------------|
|--------------------------------|--------------------------------|
|--------------------------------|--------------------------------|
|--------------------------------|--------------------------------|
 
 |       |       |       |        |       |       |       |        
|5-------------------5---5---5---|5-----------5---5---5-----------|
|5-------------------5---5---5---|5-----------5---5---5-----------|
|5-------------------5---5---5---|5-----------5---5---5-----------|
|7-----------------------7-------|7---------------7---------------|
|7-------------------------------|7-------------------------------|
|5-------------------------------|5-------------------------------|
 
 |       |       |       |        |       |       |       |        
|5-------5---5-------5---5---5---|5-------5-----------------------|
|6-------6---6-------6---6---6---|6-------6-------6---6-----------|
|5-------5---5-------5---5---5---|5-------5-------5---5-----------|
|7-------7-----------------------|7-------7-------9---7-----------|
|8-------------------------------|8-------------------------------|
|--------------------------------|--------------------------------|
 
 |       |       |       |        |       |       |       |        
|7-------7---7-------7---7---7---|7-------7---7-------7---7---7---|
|8-------8---8-------8---8---8---|8-------8---8-------8---8---8---|
|7-------7---7-------7---7---7---|9-------9---9-------9---9---9---|
|9-------9---------------9-------|9-------9---------------9-------|
|10----------------------10------|7-------------------------------|
|--------------------------------|--------------------------------|
 
 |       |       |       |        |       |       |       |        
|5-------5---5-------5---5---5---|5-------5---5-------5---5---5---|
|6-------6---6-------6---6---6---|6-------6---6-------6---6---6---|
|7-------7---7-------7---7---7---|7-------7---7-------7---7---7---|
|7-------7---------------7-------|7-------7---------------7-------|
|5-------------------------------|5-------------------------------|
|--------------------------------|--------------------------------|
 
 |       |       |       |        |       |       |       |        
|8-------8-----------8---8---8---|8-----------8---8---8-----------|
|5-------5-----------5---5---5---|5-----------5---5---5-----------|
|5-------5-----------5---5---5---|5-----------5---5---5-----------|
|7-------7---------------7-------|7---------------7---------------|
|7-------7-----------------------|7-------------------------------|
|5-------5-----------------------|5-------------------------------|
 
 |       |       |       |        |       |       |       |        
|5-------5---5-------8---8---8---|5-------5-----------------------|
|6-------6---6-------6---6---6---|6-------6-------6---6-----------|
|5-------5---5-------5---5---5---|5-------5-------5---5-----------|
|7-------7-----------------------|7-------7-------9---7-----------|
|8-------------------------------|--------------------------------|
|--------------------------------|--------------------------------|
 
 |       |       |       |        |       |       |       |        
|7-------7---7-------7---7---7---|7-------7---7-------7---7---7---|
|8-------8---8-------8---8---8---|8-------8---8-------8---8---8---|
|7-------7---7-------7---7---7---|9-------9---9-------9---9---9---|
|9-------9---------------9-------|9-------9---------------9-------|
|10----------------------10------|7-------------------------------|
|--------------------------------|--------------------------------|
 
 |       |       |       |        |       |       |       |        
|8-------8---8-------5---8---8---|8-------8---8-------8---8---8---|
|6-------6---6-------6---6---6---|6-------6---6-------6---6---6---|
|5-------5---5-------5---5---5---|5-------5---5-------5---5---5---|
|7-------7---------------7-------|7-------7---------------7-------|
|5-------------------------------|5-------------------------------|
|--------------------------------|--------------------------------|
 
 |       |       |       |        |       |       |       |        
|8-------8-----------8---8---8---|8-----------8---8---8-----------|
|5-------5-----------5---5---5---|5-----------5---5---5-----------|
|5-------5-----------5---5---5---|5-----------5---5---5-----------|
|7-------7---------------7-------|7---------------7---------------|
|7-------7-----------------------|7-------------------------------|
|5-------5-----------------------|5-------------------------------|
 
 |       |       |       |        |       |       |       |        
|5-------5---5-------8---8---8---|5-------5-----------------------|
|6-------6---6-------6---6---6---|6-------6-------6---6-----------|
|5-------5---5-------5---5---5---|5-------5-------5---5-----------|
|7-------7-----------------------|7-------7-------9---7-----------|
|8-------------------------------|--------------------------------|
|--------------------------------|--------------------------------|
 
 |       |       |       |        |       |       |       |        
|7-------7---7-------7---7---7---|7-------7---7-------7---7---7---|
|8-------8---8-------8---8---8---|8-------8---8-------8---8---8---|
|7-------7---7-------7---7---7---|9-------9---9-------9---9---9---|
|9-------9---------------9-------|9-------9---------------9-------|
|10----------------------10------|7-------------------------------|
|--------------------------------|--------------------------------|
 
 |       |       |       |        |       |       |       |        
|8-------8---8-------8---8---8---|8-------8---8-------8---8---8---|
|6-------6---6-------6---6---6---|6-------6---6-------6---6---6---|
|5-------5---5-------5---5---5---|5-------5---5-------5---5---5---|
|7-------7---------------7-------|7-------7---------------7-------|
|5-------------------------------|5-------------------------------|
|--------------------------------|--------------------------------|
 
 |       |       |       |        |       |       |       |        
|8-------8-----------8---8---8---|8-----------8---8---8-----------|
|5-------5-----------5---5---5---|5-----------5---5---5-----------|
|5-------5-----------5---5---5---|5-----------5---5---5-----------|
|7-------7---------------7-------|7---------------7---------------|
|7-------7-----------------------|7-------------------------------|
|5-------5-----------------------|5-------------------------------|
 
 |       |       |       |        |       |       |       |        
|5-------5---5-------8---8---8---|5-------5-----------------------|
|6-------6---6-------6---6---6---|6-------6-------6---6-----------|
|5-------5---5-------5---5---5---|5-------5-------5---5-----------|
|7-------7-----------------------|7-------7-------9---7-----------|
|8-------------------------------|--------------------------------|
|--------------------------------|--------------------------------|
 
 |       |       |       |        |       |       |       |        
|7-------7---7-------7---7---7---|7-------7---7-------7---7---7---|
|8-------8---8-------8---8---8---|8-------8---8-------8---8---8---|
|7-------7---7-------7---7---7---|9-------9---9-------9---9---9---|
|9-------9---------------9-------|9-------9---------------9-------|
|10----------------------10------|7-------------------------------|
|--------------------------------|--------------------------------|
 
 |       |       |       |        |       |       |       |        
|8-------8---8-------5---5---8---|8-------8---8-------8---8---8---|
|6-------6---6-------6---6---6---|6-------6---6-------6---6---6---|
|5-------5---5-------5---5---5---|5-------5---5-------5---5---5---|
|7-------7---------------7-------|7-------7---------------7-------|
|5-------------------------------|5-------------------------------|
|--------------------------------|--------------------------------|
 
 |       |       |       |        |       |       |       |        
|--------------------------------|--------------------------------|
|--------------------------------|--------------------------------|
|--------------------------------|--------------------------------|
|--------------------------------|--------------------------------|
|--------------------------------|--------------------------------|
|5-------------------------------|------------------------5---7---|
 
 |       |       |       |        |       |       |       |        
|--------------------------------|--------------------------------|
|--------------------------------|--------------------------------|
|--------------------------------|--------------------------------|
|--------------------------------|--------------------------------|
|--------------------------------|------------5---7---5-----------|
|8-------------------------------|--------8---------------8---7---|
 
 |       |       |       |        |       |       |       |        
|--------------------------------|--------------------------------|
|--------------------------------|--------------------------------|
|--------------------------------|--------------------------------|
|--------------------------------|--------------------------------|
|--------------------------------|5-------------------------------|
|0-------------------------------|3-------------------------------|
 
 |       |       |       |        |       |       |       |        
|--------------------------------|--------------------------------|
|--------------------------------|--------------------------------|
|--------------------------------|--------------------------------|
|--------------------------------|--------------------5-----------|
|3-------------------------------|----------------7---------------|
|1-------------------------------|--------------------------------|
 
 |       |       |       |        |       |       |       |        
|--------------------------------|--------------------------------|
|--------------------------------|--------------------------------|
|--------------------------------|--------------------------------|
|--------------------------------|--------------------------------|
|--------------------------------|--------------------------------|
|5---------------5---------------|------------------------5---7---|
 
 |       |       |       |        |       |       |       |        
|--------------------------------|--------------------------------|
|--------------------------------|--------------------------------|
|--------------------------------|--------------------------------|
|--------------------------------|--------------------------------|
|--------------------------------|------------5---7---5-----------|
|8-------------------------------|--------8---------------8---7---|
 
 |       |       |       |        |       |       |       |        
|--------------------------------|--------------------------------|
|--------------------------------|--------------------------------|
|--------------------------------|--------------------------------|
|--------------------------------|--------------------------------|
|--------------------------------|3---------------5---------------|
|0---------------0---------------|1---------------3---------------|
 
 |       |       |       |        |       |       |       |        
|--------------------------------|--------------------------------|
|--------------------------------|--------------------------------|
|7-------------------------------|--------------------------------|
|7-------------------------------|--------------------------------|
|5-------------------------------|--------------------------------|
|--------------------------------|--------------------------------|
 
 |       |       |       |        |       |       |       |        
|--------------------------------|--------------------------------|
|--------------------------------|--------------------------------|
|9-----------------------7-------|5-----------------------7-------|
|9-----------------------7-------|5-----------------------7-------|
|7-----------------------5-------|3-----------------------5-------|
|0-------------------------------|--------------------------------|
 
 |       |       |       |        |       |       |       |        
|--------------------------------|--------------------------------|
|--------------------------------|--------------------------------|
|9-------------------------------|--------------------------------|
|9-------------------------------|----------------7-------5h--7---|
|7-------------------------------|--------------------7-----------|
|0-------------------------------|--------------------------------|
 
 |       |       |       |        |       |       |       |        
|--------------------------------|--------------------------------|
|--------------------------------|--------------------------------|
|--------------------------------|--------------------------------|
|--------------------------------|----------------7-------5h--7---|
|--------------------------------|--------------------7-----------|
|--------------------------------|--------------------------------|
 
 |       |       |       |        |       |       |       |        
|--------------------------------|--------------------------------|
|--------------------------------|--------------------------------|
|5-----------------------5-------|--------------------------------|
|----5h--7-----------------------|----------------7-------5h--7---|
|--------------------------------|--------------------7-----------|
|--------------------------------|--------------------------------|
 
 |       |       |       |        |       |       |       |        
|--------------------------------|--------------------------------|
|--------5---------------8h--5---|--------------------------------|
|5h--7---------------------------|7h--5h--7-----------------------|
|--------------------------------|--------------------------------|
|--------------------------------|--------------------------------|
|--------------------------------|--------------------------------|
 
 |       |       |       |        |       |       |       |        
|--------------------------------|--------5-----------5---5---5---|
|--------------------------------|--------5-----------5---5---5---|
|5-------5-----------------------|--------5-----------5---5---5---|
|----7-------7h5-----------------|--------7---------------7-------|
|----------------7---5---3/--5---|--------7-----------------------|
|--------------------------------|5-------------------------------|
 
 |       |       |       |        |       |       |       |        
|5-----------5-------------------|5-------5---5-------5---5---5---|
|5-----------5---5---5-----------|6-------6---6-------6---6---6---|
|5-----------5---5---5-----------|5-------5---5-------5---5---5---|
|7---------------9---7-----------|7-------7-----------------------|
|7-------------------------------|8-------------------------------|
|5-------------------------------|--------------------------------|
 
 |       |       |       |        |       |       |       |        
|5-------5-----------------------|7-------7---7-------7---7---7---|
|6-------6-------6---6-----------|8-------8---8-------8---8---8---|
|5-------5-------5---5-----------|7-------7---7-------7---7---7---|
|7-------7-------9---7-----------|9-------9---------------9-------|
|8-------------------------------|10----------------------10------|
|--------------------------------|--------------------------------|
 
 |       |       |       |        |       |       |       |        
|7-------7---7-------7---7---7---|5-------5---5-------5---5---5---|
|8-------8---8-------8---8---8---|6-------6---6-------6---6---6---|
|9-------9---9-------9---9---9---|7-------7---7-------7---7---7---|
|9-------9---------------9-------|7-------7---------------7-------|
|7-------------------------------|5-------------------------------|
|--------------------------------|--------------------------------|
 
 |       |       |       |        |       |       |       |        
|5-------5---5-------5---5---5---|8-------8-----------8---8---8---|
|6-------6---6-------6---6---6---|5-------5-----------5---5---5---|
|7-------7---7-------7---7---7---|5-------5-----------5---5---5---|
|7-------7---------------7-------|7-------7---------------7-------|
|5-------------------------------|7-------7-----------------------|
|--------------------------------|5-------5-----------------------|
 
 |       |       |       |        |       |       |       |        
|8-----------8---8---8-----------|5-------5---5-------8---8---8---|
|5-----------5---5---5-----------|6-------6---6-------6---6---6---|
|5-----------5---5---5-----------|5-------5---5-------5---5---5---|
|7---------------7---------------|7-------7-----------------------|
|7-------------------------------|8-------------------------------|
|5-------------------------------|--------------------------------|
 
 |       |       |       |        |       |       |       |        
|5-------5-----------------------|7-------7---7-------7---7---7---|
|6-------6-------6---6-----------|8-------8---8-------8---8---8---|
|5-------5-------5---5-----------|7-------7---7-------7---7---7---|
|7-------7-------9---7-----------|9-------9---------------9-------|
|--------------------------------|10----------------------10------|
|--------------------------------|--------------------------------|
 
 |       |       |       |        |       |       |       |        
|7-------7---7-------7---7---7---|8-------8---8-------8---8---8---|
|8-------8---8-------8---8---8---|6-------6---6-------6---6---6---|
|9-------9---9-------9---9---9---|5-------5---5-------5---5---5---|
|9-------9---------------9-------|7-------7---------------7-------|
|7-------------------------------|5-------------------------------|
|--------------------------------|--------------------------------|
 
 |       |       |       |        |       |       |       |        
|8-------8---8-------8---8---8---|8-------8-----------8---8---8---|
|6-------6---6-------6---6---6---|5-------5-----------5---5---5---|
|5-------5---5-------5---5---5---|5-------5-----------5---5---5---|
|7-------7---------------7-------|7-------7---------------7-------|
|5-------------------------------|7-------7-----------------------|
|--------------------------------|5-------5-----------------------|
 
 |       |       |       |        |       |       |       |        
|8-----------8---8---8-----------|5-------5---5-------8---8---8---|
|5-----------5---5---5-----------|6-------6---6-------6---6---6---|
|5-----------5---5---5-----------|5-------5---5-------5---5---5---|
|7---------------7---------------|7-------7-----------------------|
|7-------------------------------|8-------------------------------|
|5-------------------------------|--------------------------------|
 
 |       |       |       |        |       |       |       |        
|5-------5-----------------------|7-------7---7-------7---7---7---|
|6-------6-------6---6-----------|8-------8---8-------8---8---8---|
|5-------5-------5---5-----------|7-------7---7-------7---7---7---|
|7-------7-------9---7-----------|9-------9---------------9-------|
|--------------------------------|10----------------------10------|
|--------------------------------|--------------------------------|
 
 |       |       |       |        |       |       |       |        
|7-------7---7-------7---7---7---|8-------8---8-------5---5---5---|
|8-------8---8-------8---8---8---|6-------6---6-------6---6---6---|
|9-------9---9-------9---9---9---|5-------5---5-------5---5---5---|
|9-------9---------------9-------|7-------7---------------7-------|
|7-------------------------------|5-------------------------------|
|--------------------------------|--------------------------------|
 
 |       |       |       |        |       |       |       |        
|8-------8---8-------8---8---8---|8-------8-----------8---8---8---|
|6-------6---6-------6---6---6---|5-------5-----------5---5---5---|
|5-------5---5-------5---5---5---|5-------5-----------5---5---5---|
|7-------7---------------7-------|7-------7---------------7-------|
|5-------------------------------|7-------7-----------------------|
|--------------------------------|5-------5-----------------------|
 
 |       |       |       |        |       |       |       |        
|8-----------8---8---8-----------|5-------5---5-------8---8---8---|
|5-----------5---5---5-----------|6-------6---6-------6---6---6---|
|5-----------5---5---5-----------|5-------5---5-------5---5---5---|
|7---------------7---------------|7-------7-----------------------|
|7-------------------------------|8-------------------------------|
|5-------------------------------|--------------------------------|
 
 |       |       |       |        |       |       |       |        
|5-------5-----------------------|7-------7---7-------7---7---7---|
|6-------6-------6---6-----------|8-------8---8-------8---8---8---|
|5-------5-------5---5-----------|7-------7---7-------7---7---7---|
|7-------7-------9---7-----------|9-------9---------------9-------|
|--------------------------------|10----------------------10------|
|--------------------------------|--------------------------------|
 
 |       |       |       |        |       |       |       |        
|7-------7---7-------7---7---7---|8-------8---8-------8---8---8---|
|8-------8---8-------8---8---8---|6-------6---6-------6---6---6---|
|9-------9---9-------9---9---9---|5-------5---5-------5---5---5---|
|9-------9---------------9-------|7-------7---------------7-------|
|7-------------------------------|5-------------------------------|
|--------------------------------|--------------------------------|
 
 |       |       |       |        |       |       |       |        
|5-------5---5-------8---8---8---|--------------------------------|
|6-------6---6-------6---6---6---|--------------------------------|
|5-------5---5-------5---5---5---|--------------------------------|
|7-------7---------------7-------|--------------------------------|
|5-------------------------------|--------------------------------|
|--------------------------------|5-------------------------------|
 
 |       |       |       |        |       |       |       |        
|--------------------------------|--------------------------------|
|--------------------------------|--------------------------------|
|--------------------------------|--------------------------------|
|--------------------------------|--------------------------------|
|--------------------------------|--------------------------------|
|------------------------5---7---|8-------------------------------|
 
 |       |       |       |        |       |       |       |        
|--------------------------------|--------------------------------|
|--------------------------------|--------------------------------|
|--------------------------------|--------------------------------|
|--------------------------------|--------------------------------|
|------------5---7---5-----------|--------------------------------|
|--------8---------------8---7---|0-------------------------------|
 
 |       |       |       |        |       |       |       |        
|--------------------------------|--------------------------------|
|--------------------------------|--------------------------------|
|--------------------------------|--------------------------------|
|--------------------------------|--------------------------------|
|5-------------------------------|3-------------------------------|
|3-------------------------------|1-------------------------------|
 
 |       |       |       |        |       |       |       |        
|--------------------------------|--------------------------------|
|--------------------------------|--------------------------------|
|--------------------------------|--------------------------------|
|--------------------5-----------|--------------------------------|
|----------------7---------------|--------------------------------|
|--------------------------------|5---------------5---------------|
 
 |       |       |       |        |       |       |       |        
|--------------------------------|--------------------------------|
|--------------------------------|--------------------------------|
|--------------------------------|--------------------------------|
|--------------------------------|--------------------------------|
|--------------------------------|--------------------------------|
|------------------------5---7---|8-------------------------------|
 
 |       |       |       |        |       |       |       |        
|--------------------------------|--------------------------------|
|--------------------------------|--------------------------------|
|--------------------------------|--------------------------------|
|--------------------------------|--------------------------------|
|------------5---7---5-----------|--------------------------------|
|--------8---------------8---7---|0---------------0---------------|
 
 |       |       |       |        |       |       |       |        
|--------------------------------|--------------------------------|
|--------------------------------|--------------------------------|
|--------------------------------|7-------------------------------|
|--------------------------------|7-------------------------------|
|3---------------5---------------|5-------------------------------|
|1---------------3---------------|--------------------------------|
 
 |       |       |       |        |       |       |       |        
|--------------------------------|--------------------------------|
|--------------------------------|--------------------------------|
|--------------------------------|--------------------------------|
|--------------------------------|----------------7-------5---7---|
|--------------------------------|--------------------7-----------|
|--------------------------------|--------------------------------|
 
 |       |       |       |        |       |       |       |        
|--------------------------------|--------------------------------|
|--------------------------------|--------5/--3h--5v--------------|
|--------------------------------|5h--7---------------------------|
|------------------------5h--7---|--------------------------------|
|--------------------------------|--------------------------------|
|--------------------------------|--------------------------------|
 
 |       |       |       |        |       |       |       |        
|------------------------8-------|--------------------------------|
|----------------8h--10------10h-|8/--5---------------------------|
|--------------------------------|--------7h--5---5h7v------------|
|--------------------------------|--------------7-----------------|
|--------------------------------|--------------------------------|
|--------------------------------|--------------------------------|
 
 |       |       |       |        |       |       |       |        
|--------------------------------|--------------------------------|
|--------------------------------|--------------------------------|
|5-----------------------5---7h9h|7v--------------5-------5---7---|
|----7h--5-------5h--7-----------|--------------------7-----------|
|------------7-------------------|--------------------------------|
|--------------------------------|--------------------------------|
 
 |       |       |       |        |       |       |       |        
|--------------------------------|--------------------------------|
|--------------------------------|--------------------8---10----8h|
|7-9-7h5-7-------5---------------|--------5---7/--9---------------|
|------------7-------7h5-----5/--|7-------------------------------|
|------------------------7-------|--------------------------------|
|--------------------------------|--------------------------------|
 
 |       |       |       |        |       |       |       |        
|--------8-----------8-----------|--------------------------------|
|10v---------8h--10------10p-8---|10v-----10p-8---10v-----10p-8---|
|--------------------------------|--------------------------------|
|--------------------------------|--------------------------------|
|--------------------------------|--------------------------------|
|--------------------------------|--------------------------------|
 
 |       |       |       |        |       |       |       |        
|----------------8---------------|--------------------------------|
|10v-----10h-8-------12--10--8---|10v-----10h-8---10v-----10h-8h--|
|--------------------------------|--------------------------------|
|--------------------------------|--------------------------------|
|--------------------------------|--------------------------------|
|--------------------------------|--------------------------------|
 
 |       |       |       |        |       |       |       |        
|----12--10--8---10--12--8---10--|----8---------------------------|
|10------------------------------|10------10--8---10--8-----------|
|--------------------------------|------------------------9---5---|
|--------------------------------|--------------------------------|
|--------------------------------|--------------------------------|
|--------------------------------|--------------------------------|
 
 |       |       |       |        |       |       |       |        
|------------------------8---10--|----8-----------8-----------8---|
|----------------8---10----------|10------108---------108---------|
|7---5---7/--9-------------------|------------9-----------9-------|
|--------------------------------|--------------------------------|
|--------------------------------|--------------------------------|
|--------------------------------|--------------------------------|
 
 |       |       |       |        |       |       |       |        
|--------8-----------8-----------|8-----------8-----------8-------|
|108---------108---------108-----|----108---------108---------108-|
|----9-----------9-----------9---|--------9-----------9-----------|
|--------------------------------|--------------------------------|
|--------------------------------|--------------------------------|
|--------------------------------|--------------------------------|
 
 |       |       |       |        |       |       |       |        
|----8-----------8-----------8---|--------8-----------8-----------|
|--------108---------108---------|108---------108---------108-----|
|9-----------9-----------9-------|----9-----------9-----------9---|
|--------------------------------|--------------------------------|
|--------------------------------|--------------------------------|
|--------------------------------|--------------------------------|
 
 |       |       |       |        |       |       |       |        
|8-----------8-----------8-------|----8---10--8---10--8---10--8---|
|----108---------108---------108-|--------------------------------|
|--------9-----------9-----------|9-------------------------------|
|--------------------------------|--------------------------------|
|--------------------------------|--------------------------------|
|--------------------------------|--------------------------------|
 
 |       |       |       |        |       |       |       |        
|10--8---10--8---10--8-----------|------------8---10/-12v-----12v-|
|------------------------108-----|8h--10v-------------------------|
|----------------------------9---|--------------------------------|
|--------------------------------|--------------------------------|
|--------------------------------|--------------------------------|
|--------------------------------|--------------------------------|
 
 |       |       |       |        |       |       |       |        
|17--1512----17121715171517v-----|------121512----------12151215--|
|--------1517--------------------|------------15--17v-------------|
|--------------------------------|--------------------------------|
|--------------------------------|--------------------------------|
|--------------------------------|--------------------------------|
|--------------------------------|--------------------------------|
 
 |       |       |       |        |       |       |       |        
|17v-----1512----------17151215--|17v-----1512----------17151215--|
|------------15--17--------------|------------15--17--------------|
|--------------------------------|--------------------------------|
|--------------------------------|--------------------------------|
|--------------------------------|--------------------------------|
|--------------------------------|--------------------------------|
 
 |       |       |       |        |       |       |       |        
|18--171512----------------------|--------------------------------|
|------------15--1715--17131513--|----13--15--151715--13--15--1315|
|--------------------------------|14------------------------------|
|--------------------------------|--------------------------------|
|--------------------------------|--------------------------------|
|--------------------------------|--------------------------------|
 
 |       |       |       |        |       |       |       |        
|----12171512--------------------|8-----------8-----------8-------|
|17----------15--17--15--13--10--|8---108-----8-----8h10--8---108-|
|--------------------------------|--------9-------9---------------|
|--------------------------------|--------------------------------|
|--------------------------------|--------------------------------|
|--------------------------------|--------------------------------|
 
 |       |       |       |        |       |       |       |        
|----8---108h10--8-----------8---|108-----8---108h10--8-108-12108-|
|----8---108h10--8---108-----8---|108-10--10--108h10--8-108-------|
|9-----------------------9-------|--------------------------------|
|--------------------------------|--------------------------------|
|--------------------------------|--------------------------------|
|--------------------------------|--------------------------------|
 
 |       |       |       |        |       |       |       |        
|108-108-108-108h108h108h108h108-|108h108-108h108h108h108-108-1010|
|--------------------------------|--------------------------------|
|--------------------------------|--------------------------------|
|--------------------------------|--------------------------------|
|--------------------------------|--------------------------------|
|--------------------------------|--------------------------------|
 
 |       |       |       |        |       |       |       |        
|12v-----17171512------------12--|20--22--20--22v-------------20--|
|----------------15--17v---------|--------------------------------|
|--------------------------------|--------------------------------|
|--------------------------------|--------------------------------|
|--------------------------------|--------------------------------|
|--------------------------------|--------------------------------|
 
 |       |       |       |        |       |       |       |        
|22--20--22--20--22--20--22--20--|22v-----17------20--1720171520--|
|--------------------------------|------------17------------------|
|--------------------------------|--------------------------------|
|--------------------------------|--------------------------------|
|--------------------------------|--------------------------------|
|--------------------------------|--------------------------------|
 
 |       |       |       |        |       |       |       |        
|19--17--15h-17--15h-17--17v-----|--------171512----------15201917|
|--------------------------------|----------------15--17v---------|
|--------------------------------|--------------------------------|
|--------------------------------|--------------------------------|
|--------------------------------|--------------------------------|
|--------------------------------|--------------------------------|
 
 |       |       |       |        |       |       |       |        
|151712--------15----------------|------1215121520171517----------|
|------15--1717--15--17v-1513--13|15--17----------------151715--17|
|----------------------------14--|--------------------------------|
|--------------------------------|--------------------------------|
|--------------------------------|--------------------------------|
|--------------------------------|--------------------------------|
 
 |       |       |       |        |       |       |       |        
|171512--------121512171512------|171512------121512------171512--|
|------15--17v-------------15--17|------15--17------15--17------15|
|--------------------------------|--------------------------------|
|--------------------------------|--------------------------------|
|--------------------------------|--------------------------------|
|--------------------------------|--------------------------------|
 
 |       |       |       |        |       |       |       |        
|--171512--------15--------1215--|------1215------1512------1215--|
|17------15--17------15--17------|15--17----15--17----15--17----15|
|--------------------------------|--------------------------------|
|--------------------------------|--------------------------------|
|--------------------------------|--------------------------------|
|--------------------------------|--------------------------------|
 
 |       |       |       |        |       |       |       |        
|12171512------1215------12151712|------1215------1215------121712|
|--------15--17----15--17--------|15--17----15--17----15--17------|
|--------------------------------|--------------------------------|
|--------------------------------|--------------------------------|
|--------------------------------|--------------------------------|
|--------------------------------|--------------------------------|
 
 |       |       |       |        |       |       |       |        
|------1215------1215------------|------121512--------------------|
|15--17----15--17----15--171513--|1513--------15--17151315171513--|
|------------------------------14|----14------------------------14|
|--------------------------------|--------------------------------|
|--------------------------------|--------------------------------|
|--------------------------------|--------------------------------|
 
 |       |       |       |        |       |       |       |        
|--------------------------------|--1212------12------1212------12|
|1513--13--------------13151315--|17----15--17--15--17----15--17--|
|----14--14121412--1214----------|--------------------------------|
|----------------14--------------|--------------------------------|
|--------------------------------|--------------------------------|
|--------------------------------|--------------------------------|
 
 |       |       |       |        |       |       |       |        
|------1212----------17--17----17|17--15--17--15/-17v-----17--15--|
|15--17----15--17/-17--17--1517--|--------------------------------|
|--------------------------------|--------------------------------|
|--------------------------------|--------------------------------|
|--------------------------------|--------------------------------|
|--------------------------------|--------------------------------|
 
 |       |       |       |        |       |       |       |        
|------------15----------15------|1215------1215------1512--------|
|17--15h-17------171517----171517|----15--17----15--17----15--17--|
|--------------------------------|--------------------------------|
|--------------------------------|--------------------------------|
|--------------------------------|--------------------------------|
|--------------------------------|--------------------------------|
 
 |       |       |       |        |       |       |       |        
|121512201715--15------151715----|--1210--10------1210------------|
|------------17--171517------1715|17----13--1310------1310--10--10|
|--------------------------------|--------------12--------12--12--|
|--------------------------------|--------------------------------|
|--------------------------------|--------------------------------|
|--------------------------------|--------------------------------|
 
 |       |       |       |        |       |       |       |        
|------5h8h5-------8-108---------|--------8---10--8---10--8---10--|
|--5h8-------8/--10------10/-13--|8---10--8---10--8---10--8---10--|
|7-------------------------------|--------------------------------|
|--------------------------------|--------------------------------|
|--------------------------------|--------------------------------|
|--------------------------------|--------------------------------|
 
 |       |       |       |        |       |       |       |        
|8---10--8-------10------8---10--|8v----------------------8---10--|
|8---10--8---10--10--10--8---10--|8v------108-10--8---10----------|
|------------9-------9-----------|--------------------------------|
|--------------------------------|--------------------------------|
|--------------------------------|--------------------------------|
|--------------------------------|--------------------------------|
 
 |       |       |       |        |       |       |       |        
|12--17--17--17--17--------------|15----------15--15--------------|
|--------17--17--17/-20--15/-17--|----15/-17----------17--15/-17--|
|------------------------14/-16--|----14/-16----------16--14/-16--|
|--------------------------------|--------------------------------|
|--------------------------------|--------------------------------|
|--------------------------------|--------------------------------|
 
 |       |       |       |        |       |       |       |        
|15----------15----------15--15--|--------15----------15----------|
|----15/-17------15/-17----------|15/-17------15/-17------15/-17--|
|----14/-16------14/-16----------|14/-16------14/-16------14/-16--|
|--------------------------------|--------------------------------|
|--------------------------------|--------------------------------|
|--------------------------------|--------------------------------|
 
 |       |       |       |        |       |       |       |        
|15--15----------15----------15--|--------15----------15----------|
|--------15/-17------15/-17------|15/-17------15/-17------15/-17--|
|--------14/-16------14/-16------|14/-16------14/-16------14/-16--|
|--------------------------------|--------------------------------|
|--------------------------------|--------------------------------|
|--------------------------------|--------------------------------|
 
 |       |       |       |        |       |       |       |        
|15----------15------------------|12h-10------12h-10------12h-10--|
|----15/-17------15/-17----------|------1310--------1310--------13|
|----14/-16------14/-16--14--12--|----------12----------12--------|
|--------------------------------|--------------------------------|
|--------------------------------|--------------------------------|
|--------------------------------|--------------------------------|
 
 |       |       |       |        |       |       |       |        
|----12h-10------12h-10------12h-|10------12h-10------12h-10------|
|10--------1310--------1310------|--1310--------1310--------1310--|
|--12----------12----------12----|------12----------12----------12|
|--------------------------------|--------------------------------|
|--------------------------------|--------------------------------|
|--------------------------------|--------------------------------|
 
 |       |       |       |        |       |       |       |        
|12h-10------12h-10------12h-10--|----12h-10------12h-10------12h-|
|------1310--------1310--------13|10--------1310--------1310------|
|----------12----------12--------|--12----------12----------12----|
|--------------------------------|--------------------------------|
|--------------------------------|--------------------------------|
|--------------------------------|--------------------------------|
 
 |       |       |       |        |       |       |       |        
|10------12h-10------12h-10------|12h-10------12h-10------12h-10--|
|--1310--------1310--------1310--|------1310--------1310--------13|
|------12----------12----------12|----------12----------12--------|
|--------------------------------|--------------------------------|
|--------------------------------|--------------------------------|
|--------------------------------|--------------------------------|
 
 |       |       |       |        |       |       |       |        
|----12h-10------12h-10------12--|--------17--15--17--17--15------|
|10--------1310--------1310------|15--17----------------------17--|
|--12----------12----------12----|--------------------------------|
|--------------------------------|--------------------------------|
|--------------------------------|--------------------------------|
|--------------------------------|--------------------------------|
 
 |       |       |       |        |       |       |       |        
|15--20--17--15171517--15--17v---|17--15/-17--17--15------15------|
|--------------------------------|------------------15--17--15--17|
|--------------------------------|--------------------------------|
|--------------------------------|--------------------------------|
|--------------------------------|--------------------------------|
|--------------------------------|--------------------------------|
 
 |       |       |       |        |       |       |       |        
|15----15----1515----15----151515|------15----------15------1515--|
|--1517--1517----1517--1517------|15--17--15--15--17--15--17------|
|--------------------------------|--------------------------------|
|--------------------------------|--------------------------------|
|--------------------------------|--------------------------------|
|--------------------------------|--------------------------------|
 
 |       |       |       |        |       |       |       |        
|--------------------------15----|----121215------121215------1212|
|15h-13------13h-1513--1315--15--|17--------15--17------15--17----|
|--------14----------14----------|--------------------------------|
|--------------------------------|--------------------------------|
|--------------------------------|--------------------------------|
|--------------------------------|--------------------------------|
 
 |       |       |       |        |       |       |       |        
|15151212151512121512------------|--------------------------------|
|--------------------151315------|151315--15--17v---15--1313----15|
|----------------------------14--|--------------------------14----|
|--------------------------------|--------------------------------|
|--------------------------------|--------------------------------|
|--------------------------------|--------------------------------|
 
 |       |       |       |        |       |       |       |        
|----------------------5---------|--------------------------------|
|--13----------5---8-------------|--------------------------------|
|------141214--------------------|--------------------------------|
|--------------------------------|--------------------------------|
|--------------------------------|--------------------------------|
|--------------------------------|--------------------------------|
 

pompom020366@hotmail.com
Tap to rate this tab
# A B C D E F G H I J K L M N O P Q R S T U V W X Y Z