Song name
# A B C D E F G H I J K L M N O P Q R S T U V W X Y Z

Jefferson Starship - Jane tab

-------------------------------------------------------------------------------
			     Jane - Jefferson Starship
-------------------------------------------------------------------------------
Tabbed by: led4thehead13
Email: jewishkid882@aim.com

Tuning:EADGBe

|-17b(17)--17b(17)--17b(17)--17b(17)--17p15-----------15-17p15----------15\-------------|
|-----------------------------------------17-15------------17-17~~~~--------------------|
|---------------------------------------------------------------------------------------|
|---------------------------------------------------------------------------------------|
|---------------------------------------------------------------------------------------|
|---------------------------------------------------------------------------------------|

|-----------------------------------------------------------------------------------|
|----3-5-3p0------------1/3-3---1/3-3---1/3-3---1/3-3-------------------------------|
|-/4---------2--4p2p0---2/4-4---2/4-4---2/4-4---2/4-4---2p0h2p0h2p0h2p0h2p0-2~~p0---|
|-----------------------------------------------------------------------------------|
|-----------------------------------------------------------------------------------|
|-----------------------------------------------------------------------------------|

|-----------------------------------------------------------|
|-----------------------------------------------------------|
|-----------------------------------12h14~~~~---12----12----|
|--0-------0--------0--------0------------------12-14-12-14-|
|2----0h1h2----0h1h2----0h1h2-------------------------------|
|-----------------------------------------------------------|

|----------------------------------------------------|
|----------------------------------------------------|
|----------------------------------------------------|
|-------14p12----------------------------------------|
|-------------14p12--------------12--14p12-----------|
|-------------------15p12--12h15------------15-12-12-|

|------------------------------------------------------------------------------|
|------------------------------------------------------------------------------|
|--------------------------------------------------15/17-17-17-17-19-19-19-19--|
|--------------12-14-14-14b↑↓p12-12-14-14b↑↓p12-12-----|
|--------12-14-----------------------------------------------------------------|
|-12h15------------------------------------------------------------------------|

|-15--15--15--15--17-17-17-17-17h19-19-19-19-19p17-17-17h19--22-22---22-22--|
|---------------------------------------------------------------------------|
|---------------------------------------------------------------------------|
|---------------------------------------------------------------------------|
|---------------------------------------------------------------------------|
|---------------------------------------------------------------------------|


| b↑↓  bend up then down
| r   release bend
| b  bend
| /  slide up
| \  slide down
| h  hammer-on
| p  pull-off
| ~  vibrato
| +  harmonic
| x  Mute note


This was my 1st tab so please tell me how I did

===============================================================================
Tap to rate this tab
# A B C D E F G H I J K L M N O P Q R S T U V W X Y Z