Song name
# A B C D E F G H I J K L M N O P Q R S T U V W X Y Z

Jeffrey Foucault - Train To Jackson tab

Verse/Intro
e-2--------2--------2------------2----|
A-2--------2--------5------------2----|
G-4--------4--------4------------4----|
D-4--------2--------2------------4----|
A-2--------2--------2------------2----|
E ------------------------------------|
                                  x2
Chorus      
e----------2-----------------2--------|
A----------2-----------------2--------|
G-2--------4--------2--------4--------|
D-2--------4--------2--------4--------|
A-4--------2--------4--------2--------|
E-5-----------------5-----------------|
                                 x2

*The B string is tuned a whole step down to an A
*He plays The first chord of the Verse as a tag (between verses and choruses)
*The strumming pattern is fairly easy to pick up
Tap to rate this tab
# A B C D E F G H I J K L M N O P Q R S T U V W X Y Z