Guitaretab - guitar tabs
Song name
# A B C D E F G H I J K L M N O P Q R S T U V W X Y Z

Jeffrey Lewis - If Life Exists tab

----------------------------------------------------------------------------
			     If Life Exists- Jeffrey Lewis & The Junkyard
----------------------------------------------------------------------------

Tabbed by: Markie31
Email: mark_cheddar31@hotmail.co.uk

Tuning: Standard (eBGDAE)

A really nice (and easy to play) tune off 'Em Are I. Using a really basic fingerpicking 
and the chord shapes E and A.

Fingerpicking key=

p-thumb
i-index
m-middle
a-ring
c-pinky

Listen to song for speed and rhythm.
[ Tab from: http://www.guitaretab.com/j/jeffrey-lewis/191006.html ]
    E           A        E
e|--------------------------------------------------------------------------|
B|-----------------2--0-----------------------------------------------------|
G|-----1-----------2-----0h1------------------------------------------------|
D|-----------2--------------------------------------------------------------|
A|--------2-----0-----------------------------------------------------------|
E|--0-----------------------------------------------------------------------|
    p  m  p  i  p  m  m  i
                   i

Repeat this riff throughout the song........and there you have it!!!

Please comment..... my first tab :)

| /  slide up
| \  slide down
| h  hammer-on
| p  pull-off
| ~  vibrato
| +  harmonic
| x  Mute note

============================================================================
Related for If Life Exists tab
Advertisement will be closed in 10 seconds