Jeffrey Lewis - Another Girl tab

			     SONG NAME - Band Name

Tabbed by: Austin Breed
Email: austinbreed@gmail.com

Tuning: Standard


This is a really kickass song, on a kickass album, by a really really kickass artist.  
quality of the song is pretty bad, so it makes it hard to hear a lot of what's goin' on, 
I'm pretty sure this is correct.

//The song starts off with this bass line, and it repeats throughout the whole song.

e|--------------------------------------------------------------------------|
B|--------------------------------------------------------------------------|
G|-------------- -----------------------------------------------------------|
D|-----------------------------------------------------44444444-------------|
A|-------4-x-4--2-x-2---4-222-------------4-x-4--2-x-2-22222222-------------|
E|-2-x-2--------------2-------2-----2-x-2-----------------------2-----------|

//Then Jeff (I think it's Jeff?) comes with his guitar right after the bass line measure 
played once.

e|-2-2-2-2---4-4-4-4---2-2-2-2---2-2-2-2--------------------------------|
B|-2-2-2-2---5-5-5-5---3-3-3-3---2-2-2-2--------------------------------|
G|-3-3-3-3---6-6-6-6---4-4-4-4---3-3-3-3--------------------------------|
D|-4-4-4-4---6-6-6-6---4-4-4-4---4-4-4-4--------------------------------|
A|-4-4-4-4---4-4-4-4---2-2-2-2---4-4-4-4--------------------------------|
E|-2-2-2-2---4-4-4-4---2-2-2-2---2-2-2-2--------------------------------|

//Play that measure once, and then the lyrics come in.


I don't understand why you look at me
And I can't understand why you can't lick your knee

Stepped you around
And you're on the floor
I'm not gonna remember your name anymore

Cos I've found another girl
And she's cuter and younger than you ever were
And she could kick your ass if you fuck with her
And she's good in bed and she calls me sir

Remember the day when you knocked at my door
I let you in just because I was bored
My TV was broken, my telephone too
I'm trying to do something better to do

Cos I've found another girl
And she's cuter and younger than you ever were
And she could kick your ass if you fuck with her
And she's good in bed and she calls me sir


//He strums those up until the solo.

e|-----------------------------------------------------------------|
B|-----------------------------------------------------------------|
G|-/11-11-11-11-11-11-11-11-8-9-9-9-9-9-9-9-9-8--------------------|
D|----------------------------------------------9-9-9-9-9-9-9-9----|
A|-----------------------------------------------------------------|
E|-----------------------------------------------------------------|
                                                                       x2
e|-----------------------------------------------------------------|
B|-----------------------------------------------------------------|
G|-9-8-------------------------------------------------------------|
D|-----9-9-9-9-9-9-9-9-8-8-8---------------------------------------|
A|-----------------------------------------------------------------|
E|-----------------------------------------------------------------|

//The solo then repeats while he sings these lyrics.


Remember the day when you knocked on my door
And I let you in just because I was bored
My TV was broken, my telephone too
I'm trying to do something better to do

But now I've found another girl
And she's cuter and younger than you ever were
And she could kick your ass if you fuck with her
And she's good in bed and she calls me sir

Cos I've found another girl
And she's cuter and younger than you ever were
And she can kick your ass if you fuck with her
And she's good in bed and she calls me sir

//And then back to the original riff.

e|-2-2-2-2---4-4-4-4---2-2-2-2---2-2-2-2--------------------------------|
B|-2-2-2-2---5-5-5-5---3-3-3-3---2-2-2-2--------------------------------|
G|-3-3-3-3---6-6-6-6---4-4-4-4---3-3-3-3--------------------------------|
D|-4-4-4-4---6-6-6-6---4-4-4-4---4-4-4-4--------------------------------|
A|-4-4-4-4---4-4-4-4---2-2-2-2---4-4-4-4--------------------------------|
E|-2-2-2-2---4-4-4-4---2-2-2-2---2-2-2-2--------------------------------|

Cos I've found another girl
And she's cuter and younger than you ever were
And she can kick your ass if you fuck with her
And she's good in bed and she calls me sir
Tap to rate this tab
 
# A B C D E F G H I J K L M N O P Q R S T U V W X Y Z