Song name
# A B C D E F G H I J K L M N O P Q R S T U V W X Y Z

Jeffrey Lewis - I Saw A Hippie Girl On 8th Avenue chords

Highlighted       Show chord diagrams
Standard tuningC:

Here's the chords for the first verse and chorus just so you see how it all fits in with 
the lyrics:

D                      G              D                    A
I saw a hippie girl on 8th Avenue, She barely looked at me for a second or two
D                                G                        D          A
And it was then that I realised I no longer looked like a hippie, aah-aah

Chorus
G
I had a great pair of bellbottoms
A
I had two
G
my friend borrowed one
A
and the other I outgrew
G
and now to the eye
A
I'm turning into another
            D        A
non-descript guy
----------------------------------------------------------------------
And now the tabs C:
VERSE
        D              G                D              A
e|------2-------|--------3--------|------2-------|-------0---------|
B|--3-----3---3-|---3-------3---3-|--3-----3---3-|--2-------2----2-|
G|----2-----2---|-------------0---|----2-----2---|-----2-------2---|X4
D|0-------------|-----0-----------|0-------------|2----------------|
A|--------------|-----------------|--------------|-----------------|
E|--------------|-3---------------|--------------|-----------------|


CHORUS

        G                   A
e|-------3---------|--------0----------|
B|---3-------3---3-|--2--------2----2--|
G|-------------0---|-----2--------2----|X3
D|-----0-----------|-2-----------------|
A|-----------------|-------------------|
E|-3---------------|-------------------|

AND then on the last little part
(G
and now to the eye
A
I'm turning into another
            D        A
non-descript guy)

You do this =D  :


Guy...
           D                      A
e|---------2---------|--------0-----------------|
B|---3--------3----3-|---2--------2------2------|
G|------2--------2---|------2---------2---------|
D|0------------------|-2------------------------|
A|-------------------|--------------------------|
E|-------------------|--------------------------|

THE END
Tap to rate this tab
# A B C D E F G H I J K L M N O P Q R S T U V W X Y Z