Song name
# A B C D E F G H I J K L M N O P Q R S T U V W X Y Z

Jeffrey Lewis - Anxiety Attack tab

Anxiety attack by jeffrey lewis
Simple song, this pattern through the verse

verse

-------------------------------|
-------------------------------|
-------------------------------|
---------0------------0--------|
------2-----2------3---3-------|
---3------------3--------------|

chorus

--------------------|
--------------------|
--------------------|
---------0----------|
------2----2--------|
---3----------------|    X4

-------------------|
-------------------|
-------------------|
---------0---------|
------0----0-------|
---1---------------|   X4

Then move the same pattern onto the A string for the chorus
Tap to rate this tab
# A B C D E F G H I J K L M N O P Q R S T U V W X Y Z