Song name
# A B C D E F G H I J K L M N O P Q R S T U V W X Y Z

Jeffrey Lewis - Springtime tab

Artist:		Jeffrey Lewis
Album:		The Last Time I Did Acid I Went Insane And Other Favourites
Song:		Springtime
Tabbed By:	@ V!RuS 



Intro

E|-------------------------------|		
B|-------------------------------|	   	
G|-------------------------------|	
D|-------------------------------|  		
A|--5-5-5-0-0-0------------------|		
E|------------------0-0-0-3-3-3--|

		OR		

E|-------------------------------|
B|-------------------------------|
G|--7-7-7-2-2-2------------------|
D|------------------2-2-2-5-5-5--|
A|-------------------------------|
E|-------------------------------|

		OR
	     2GETHER

E|-------------------------------|
B|-------------------------------|
G|--7-7-7-2-2-2------------------|
D|------------------2-2-2-5-5-5--|
A|--5-5-5-0-0-0------------------|
E|------------------0-0-0-3-3-3--|

Sometimes Theres A Little Slide (Slow Slide)

E|---------------|
B|--7--(sl)--10--|
G|---------------|
D|---------------|
A|---------------|
E|---------------|

Then A 'D' Chord Comes In

E|--2~~~~------------------------|
B|--3~~~~------------------------|
G|--2~~~~-2-2-2------------------|
D|--x~~~~-----------2-2-2-5-5-5--|
A|--x~~~~-0-0-0------------------|
E|--x~~~~-----------0-0-0-3-3-3--|

Then All Chords Come In (Figure Out Strumming, Not Too Hard)

    D		   Am		   Em		   G
E|--2~~--|	|--x~~--|	|--x~~--|	|--x~~--|
B|--3~~--|	|--1~~--|	|--0~~--|	|--x~~--|
G|--2~~--|	|--2~~--|	|--0~~--|	|--4~~--|
D|--x~~--|	|--2~~--|	|--2~~--|	|--5~~--|
A|--x~~--|	|--x~~--|	|--2~~--|	|--5~~--|
E|--x~~--|	|--x~~--|	|--0~~--|	|--3~~--|

Please Rate It, One Of My First! Joe Satriani's "Rubina's Blue Sy Happiness" Comin' Soon!!
Tap to rate this tab
# A B C D E F G H I J K L M N O P Q R S T U V W X Y Z