Song name
# A B C D E F G H I J K L M N O P Q R S T U V W X Y Z

Jello Biafra And The Guantanamo School Of Medicine - Electronic Plantation tab

-------------------------------------------------------------------------------
Jello Biafra and the Guantanamo School of Medicine
Electronic Plantation
-------------------------------------------------------------------------------

Transcribed By Shaun Amos

^ = Palm Mute
> = As many notes as it takes!
/ = Slide

NOTE: I've included strumming and rhythm for some parts,
however, listen for proper strumming/number of notes to
make sure it sounds right FOR YOU!


Bass Intro
G|----------------------------------|----------------------------------|
D|-----------------------------3366-|-555555555555---------------------|2
A|---------------55444444444444-----|---------------554444444444444444-|X
E|-33333333333366-------------------|-------------66-------------------|
   1+2+3+4+1+2+3+4+1+2+3+4+1+2+3+4+   1+2+3+4+1+2+3+4+1+2+3+4+1+2+3+4+ 

Intro
Part 1
e|----------------------------------|----------------------------------|
B|----------------------------------|----------------------------------|
G|-----------------------------5-8--|-777777777777---------------------|2
D|---------------7-6666666666663-6--|-555555555555--7-6666666666666666-|x
A|-5555555555557-5-444444444444-----|-------------8-5-4444444444444444-|
E|-3333333333336--------------------|-------------6--------------------|
   1+2+3+4+1+2+3+4+1+2+3+4+1+2+3+4+   1+2+3+4+1+2+3+4+1+2+3+4+1+2+3+4+ 


Part 2
e|----------------------------------|----------------------------------|
B|----------------------------------|----------------------------------|
G|-----------------------------5-8--|-777777777777---------------------|
D|-555555555555530-------------3-6--|-555555555555--7-6666666666666666-|
A|-----------------444444444444-----|-------------8-5-4444444444444444-|
E|----------------------------------|-------------6--------------------|
   1+2+3+4+1+2+3+4+1+2+3+4+1+2+3+4+   1+2+3+4+1+2+3+4+1+2+3+4+1+2+3+4+ 


e|----------------------------------|----------------------------------|
B|----------------------------------|----------------------------------|
G|-----------------------------5-8--|-777777777777---------------------|
D|-555555555555530-------------3-6--|-555555555555--7-66666666----6666-|
A|-----------------444444444444-----|-------------8-5-4444444488884444-|
E|----------------------------------|-------------6-----------6666-----|
   1+2+3+4+1+2+3+4+1+2+3+4+1+2+3+4+   1+2+3+4+1+2+3+4+1+2+3+4+1+2+3+4+ 


Verse
Part 1
e|----------------------------------|----------------------------------|
B|----------------------------------|----------------------------------|
G|----------------------------------|----------------------------------|2
D|-5~-------------------------------|-----------------------------6666-|X
A|-5~-------------------------------|-------------------------88884444-|
E|-3~-------------------------------|-------------------------6666-----|
   1+2+3+4+1+2+3+4+1+2+3+4+1+2+3+4+   1+2+3+4+1+2+3+4+1+2+3+4+1+2+3+4+ 

Part 2
e|----------------------------------|----------------------------------|
B|----------------------------------|----------------------------------|
G|----------------------------------|----------------------------------|2
D|-555555555555530-------------3-6--|-555555555555---------------------|X
A|-----------------444444444444-----|---------------5-444444444444444--|
E|----------------------------------|-------------6------------------5-|
   1+2+3+4+1+2+3+4+1+2+3+4+1+2+3+4+   1+2+3+4+1+2+3+4+1+2+3+4+1+2+3+4+ 


Chorus - 2x
e|----------| |----------|
B|----------| |----------|(the first note of the entire
G|----------|3|----------|(riff is the A at the very end
D|----------|X|----------|(of the previous verse bar)
A|----------| |----------|
E|--5757875-| |-88775555-|
   1+2+3+4+     1+2+3+4+
   v^v^v^v^     v^v^v^v^

[Intro - Part 1]

[Verse]

[Chorus] 2X

Bridge
Part 1 (Vocals come in on the 5th X)
e|----------------------------------|
B|----------------------------------|
G|----------------------------------|7
D|-4>------2>------5>------2>-------|X
A|-2>------0>------3>------0>-------|
E|----------------------------------|
   1+2+3+4+1+2+3+4+1+2+3+4+1+2+3+4+

e|------------------|
B|------------------|
G|------------------|4
D|-444-222-555-24-2-|X
A|-222-000-333-02-0-|
E|------------------|
   1+2+3+4+1+2+3+4+

e|------------------| |------------------|
B|------------------| |------------------|
G|-----^-^-^-^-^-^--|3|------------------|
D|-444--------------|X|-4----------------|
A|-222-0-0-3-3-0-0--| |-2----------------|
E|------------------| |------------------|
   1+2+3+4+1+2+3+4+

[Intro - Part 1]

[Verse]

[Chorus] 4X

Bridge/Outro
e|----------------------------------|
B|----------------------------------|
G|----------------------------------|3
D|-4>------2>------5>------2>-------|X
A|-2>------0>------3>------0>-------|
E|----------------------------------|
   1+2+3+4+1+2+3+4+1+2+3+4+1+2+3+4+

e|------------------| |------------------|
B|------------------| |------------------|
G|------------------|3|------------------|
D|-444-222-555-24-2-|X|-444---4-44-------|
A|-222-000-333-02-0-| |-222---2-22-------|
E|------------------| |------------------|
   1+2+3+4+1+2+3+4+     1+2+3+4+1+2+3+4

http://www.myspace.com/jellobiafraandthegsm
Tap to rate this tab
 
# A B C D E F G H I J K L M N O P Q R S T U V W X Y Z