Song name
# A B C D E F G H I J K L M N O P Q R S T U V W X Y Z

Jem - 24 tab

Artist: Jem
Song: 24
Tabbed by Laura
colorblind1277@gmail.com

Standard Tuning

 / - slide
 ~ - let ring (only used during the pre-chorus)
 . - palm mute


Verse 1: (Play four times)

  1 & 2 & 3   & 4 & | 1 & 2 & 3 & 4 &   1 & 2 & 3   & 4 & | 1 & 2 & 3 & 4 &
e-------------------|-----------------|-------------------|-----------------|
B-------------------|-----------------|-------------------|---------------4-|
G-------------------|-----------------|-----4-2-4/5-5-5-5-|-----4-2-----4---|
D-----4-2-4/5-5-5-5-|-----4-2-----0-0-|---2---------------|---2-------4-----|
A---2---------------|---2-----2-2-----|-0-----------------|-0-------2-------|
E-0-----------------|-0---------------|-------------------|-----------------|


Pre-chorus:

  1 & 2 & 3 & 4 & | 1 & 2 & 3 & 4 & | 1 & 2 & 3 & 4 & | 1 & 2 & 3 & 4 &
e-----------------|-----------------|-----------------|-----------------|
B-----------------|-----------------|-----------------|-----------------|
G-5~~~~~~~~~~~~~~-|-2~~~~~~~~~~~~~~-|-5~~~~~~~~~~~~~~-|-7~~~~~~~~~~~~~~-|
D-5~~~~~~~~~~~~~~-|-2~~~~~~~~~~~~~~-|-5~~~~~~~~~~~~~~-|-7~~~~~~~~~~~~~~-|
A-3~~~~~~~~~~~~~~-|-0~~~~~~~~~~~~~~-|-3~~~~~~~~~~~~~~-|-5~~~~~~~~~~~~~~-|
E-----------------|-----------------|-----------------|-----------------|


Chorus: (Play twice)

  1 & 2 & 3 & 4 & | 1 & 2 & 3 & 4 & | 1 & 2 & 3 & 4 & | 1 & 2 & 3 & 4 &
e-----------------|-----------------|-----------------|-----------------|
B-----------------|-----------------|-----------------|-----------------|
G-----------------|-----------------|-----------------|-----------------|
D-2-2-------------|-2-2-------------|-2-2-------------|-2-2-------------|
A-2-2-------------|-2-2-------------|-2-2-------------|-2-2-------------|
E-0-0-------------|-0-0-------------|-0-0-------------|-0-0-------------|
    .                 .                 .                 .

  1 & 2 & 3 & 4 & | 1 & 2 & 3 & 4 & | 1 & 2 & 3 & 4 & | 1 & 2 & 3 & 4 &
e-----------------|-----------------|-----------------|-----------------|
B-----------------|-----------------|-3-3-------------|-----------------|
G-2-2-------------|-2-2-------------|-2-2-------------|-4-4-------------|
D-2~2-------------|-2-2-------------|-0-0-------------|-4-4-------------|
A-0-0-------------|-0-0-------------|-----------------|-2-2-------------|
E-----------------|-----------------|-----------------|-----------------|
    .                 .                 .                 .


Verse 2: (Play three times)

  1 & 2 & 3   & 4 & | 1 & 2 & 3 & 4 &   1 & 2 & 3   & 4 & | 1 & 2 & 3 & 4 &
e-------------------|-----------------|-------------------|-----------------|
B-------------------|-----------------|-------------------|---------------4-|
G-------------------|-----------------|-----4-2-4/5-5-5-5-|-----4-2-----4---|
D-----4-2-4/5-5-5-5-|-----4-2-----0-0-|---2---------------|---2-------4-----|
A---2---------------|---2-----2-2-----|-0-----------------|-0-------2-------|
E-0-----------------|-0---------------|-------------------|-----------------|


Pre-chorus:

  1 & 2 & 3 & 4 & | 1 & 2 & 3 & 4 & | 1 & 2 & 3 & 4 & | 1 & 2 & 3 & 4 &
e-----------------|-----------------|-----------------|-----------------|
B-----------------|-----------------|-----------------|-----------------|
G-5~~~~~~~~~~~~~~-|-2~~~~~~~~~~~~~~-|-5~~~~~~~~~~~~~~-|-7~~~~~~~~~~~~~~-|
D-5~~~~~~~~~~~~~~-|-2~~~~~~~~~~~~~~-|-5~~~~~~~~~~~~~~-|-7~~~~~~~~~~~~~~-|
A-3~~~~~~~~~~~~~~-|-0~~~~~~~~~~~~~~-|-3~~~~~~~~~~~~~~-|-5~~~~~~~~~~~~~~-|
E-----------------|-----------------|-----------------|-----------------|


Chorus: (Play four times)

  1 & 2 & 3 & 4 & | 1 & 2 & 3 & 4 & | 1 & 2 & 3 & 4 & | 1 & 2 & 3 & 4 &
e-----------------|-----------------|-----------------|-----------------|
B-----------------|-----------------|-----------------|-----------------|
G-----------------|-----------------|-----------------|-----------------|
D-2-2-------------|-2-2-------------|-2-2-------------|-2-2-------------|
A-2-2-------------|-2-2-------------|-2-2-------------|-2-2-------------|
E-0-0-------------|-0-0-------------|-0-0-------------|-0-0-------------|
    .                 .                 .                 .

  1 & 2 & 3 & 4 & | 1 & 2 & 3 & 4 & | 1 & 2 & 3 & 4 & | 1 & 2 & 3 & 4 &
e-----------------|-----------------|-----------------|-----------------|
B-----------------|-----------------|-3-3-------------|-----------------|
G-2-2-------------|-2-2-------------|-2-2-------------|-4-4-------------|
D-2~2-------------|-2-2-------------|-0-0-------------|-4-4-------------|
A-0-0-------------|-0-0-------------|-----------------|-2-2-------------|
E-----------------|-----------------|-----------------|-----------------|
    .                 .                 .                 .


Verse 3: (Play three times)

  1 & 2 & 3   & 4 & | 1 & 2 & 3 & 4 &   1 & 2 & 3   & 4 & | 1 & 2 & 3 & 4 &
e-------------------|-----------------|-------------------|-----------------|
B-------------------|-----------------|-------------------|---------------4-|
G-------------------|-----------------|-----4-2-4/5-5-5-5-|-----4-2-----4---|
D-----4-2-4/5-5-5-5-|-----4-2-----0-0-|---2---------------|---2-------4-----|
A---2---------------|---2-----2-2-----|-0-----------------|-0-------2-------|
E-0-----------------|-0---------------|-------------------|-----------------|


Pre-chorus:

  1 & 2 & 3 & 4 & | 1 & 2 & 3 & 4 & | 1 & 2 & 3 & 4 & | 1 & 2 & 3 & 4 &
e-----------------|-----------------|-----------------|-----------------|
B-----------------|-----------------|-----------------|-----------------|
G-5~~~~~~~~~~~~~~-|-2~~~~~~~~~~~~~~-|-5~~~~~~~~~~~~~~-|-7~~~~~~~~~~~~~~-|
D-5~~~~~~~~~~~~~~-|-2~~~~~~~~~~~~~~-|-5~~~~~~~~~~~~~~-|-7~~~~~~~~~~~~~~-|
A-3~~~~~~~~~~~~~~-|-0~~~~~~~~~~~~~~-|-3~~~~~~~~~~~~~~-|-5~~~~~~~~~~~~~~-|
E-----------------|-----------------|-----------------|-----------------|


Chorus: (Play four times)

  1 & 2 & 3 & 4 & | 1 & 2 & 3 & 4 & | 1 & 2 & 3 & 4 & | 1 & 2 & 3 & 4 &
e-----------------|-----------------|-----------------|-----------------|
B-----------------|-----------------|-----------------|-----------------|
G-----------------|-----------------|-----------------|-----------------|
D-2-2-------------|-2-2-------------|-2-2-------------|-2-2-------------|
A-2-2-------------|-2-2-------------|-2-2-------------|-2-2-------------|
E-0-0-------------|-0-0-------------|-0-0-------------|-0-0-------------|
    .                 .                 .                 .

  1 & 2 & 3 & 4 & | 1 & 2 & 3 & 4 & | 1 & 2 & 3 & 4 & | 1 & 2 & 3 & 4 &
e-----------------|-----------------|-----------------|-----------------|
B-----------------|-----------------|-3-3-------------|-----------------|
G-2-2-------------|-2-2-------------|-2-2-------------|-4-4-------------|
D-2~2-------------|-2-2-------------|-0-0-------------|-4-4-------------|
A-0-0-------------|-0-0-------------|-----------------|-2-2-------------|
E-----------------|-----------------|-----------------|-----------------|


End:
  1 & 2 & 3 & 4 &
e-----------------|
B-----------------|
G-----------------|
D-2-2-------------|
A-2-2-------------|
E-0-0-------------|
    .
Tap to rate this tab
# A B C D E F G H I J K L M N O P Q R S T U V W X Y Z