Guitaretab - guitar tabs
Song name
# A B C D E F G H I J K L M N O P Q R S T U V W X Y Z

Jem - Got It Good tab

Song: Got It Good
Artist: Jem
Album: Down To Earth
Tabbed by: SoldierOfEdenia
Tuning: Half step down


"Youíve got it good, donít forget how lucky you are,
Darling, darling,
Use it to connect with everyone."
-'Got It Good' by Jem



Intro [0:00-0:11]

eb|-----------3-------------------------------------------------|
Bb|-----------------------5-------------------------------------|
Gb|--5--4--5-----5--4--5-----5--4--5--7--5--4--5----------------|
Db|-------------------------------------------------------------|
Ab|-------------------------------------------------------------|
Eb|-------------------------------------------------------------|

eb|-----------3-----------------------8--7--5--3--1-------------|
Bb|-----------------------5-------------------------------------|
Gb|--5--4--5-----5--4--5-----5--4--5----------------------------|
Db|-------------------------------------------------------------|
Ab|-------------------------------------------------------------|
Eb|-------------------------------------------------------------|


VERSE 1 [0:12-0:46]
C              G   Am            Em
If I had one wish, if I had one wish
         F         C            Am            G
It would be to be free of this fighting all around
C              G                 Am      Em
ĎCause itís so wrong and it could be so right
         F                C          
In my heart I know weíre here to grow 
 Am                     G
To love, to give, to learn, to live together
    F      C      Am    G
And I believe in miracles
F    C         G
Open up your eyes


CHORUS [0:47-1:10]
C            G           Am              Em
Got a soul, got a mind, got a heart that beats in time
         F          C            Am               G
Youíve got a smile, got a voice, got the gift of love 
C              G    Am               Em
Youíve got it good, donít forget how lucky you are 
F        C
Darling, darling 
F             G             C
Use it to connect with everyone


[1:11-1:17]
eb|-----------3-------------------------------------------------|
Bb|-----------------------5-------------------------------------|
Gb|--5--4--5-----5--4--5-----5--4--5--7--5--4--5----------------|
Db|-------------------------------------------------------------|
Ab|-------------------------------------------------------------|
Eb|-------------------------------------------------------------|

[1:17-1:23]
eb|-----------3-----------------------8--7--5--3--1-------------|
Bb|-----------------------5-------------------------------------|
Gb|--5--4--5-----5--4--5-----5--4--5----------------------------|
Db|-------------------------------------------------------------|
Ab|-------------------------------------------------------------|
Eb|-------------------------------------------------------------|

[ Tab from: http://www.guitaretab.com/j/jem/187579.html ]
VERSE 2 [1:23-1:57]
C                    G     Am                Em
Donít you know weíre golden, covered up with mud
     F                  C                 Am            G
One day youíll see the truth that we all share the same blood
C                     G          Am               Em
Supposed to love thy neighbor, together we should stand
    F            C                   Am              G
Whatever color, race, or creed, come on and hold my hand 
       F       C    Am     G
ĎCause I donít differentiate
      F        C      G
Weíre all the same to me


CHORUS [1:58-2:22]
C            G           Am              Em
Got a soul, got a mind, got a heart that beats in time
         F          C            Am               G
Youíve got a smile, got a voice, got the gift of love 
C              G    Am               Em
Youíve got it good, donít forget how lucky you are 
F        C
Darling, darling 
F             G             C
Use it to connect with everyone


[2:22-2:28]
eb|-------------------------------------------------------------|
Bb|--13--12------------------------13--12-----------------------|
Gb|---------14--12--10--9--7--5-----------14--12--10--9--7--5---|
Db|-------------------------------------------------------------|
Ab|-------------------------------------------------------------|
Eb|-------------------------------------------------------------|


BRIDGE [2:28-3:02]
Am                  F
And itís getting so serious 
G                  C
Crush my heart in pieces
      Am             F               G 
But I know Iím not alone in wanting peace
G
No, ooh
    F      C         Am   G
And if you feel what I feel
F              C      G
Raise your hands with me


CHORUS [3:03-3:26]
C            G           Am              Em
Got a soul, got a mind, got a heart that beats in time
         F          C            Am               G
Youíve got a smile, got a voice, got the gift of love 
C              G    Am               Em
Youíve got it good, donít forget how lucky you are 
F        C
Darling, darling 
F             G             C
Use it to connect with everyone

[3:26-3:49]
C            G           Am               Em
Got a soul, got a mind, got a heart that beats in time
         F          C            Am               G
Youíve got a smile, got a voice, got the gift of love 
C              G    Am               Em
Youíve got it good, donít forget how lucky you are 
F        C
Darling, darling 
F                    G            C
Thank you for the moments that we have


OUTRO
[3:50-3:55]
eb|-----------3-------------------------------------------------|
Bb|-----------------------5-------------------------------------|
Gb|--5--4--5-----5--4--5-----5--4--5--7--5--4--5----------------|
Db|-------------------------------------------------------------|
Ab|-------------------------------------------------------------|
Eb|-------------------------------------------------------------|

[3:55-4:02]
eb|-----------3-----------------------8--7--5--3--1--0----------|
Bb|-----------------------5-------------------------------------|
Gb|--5--4--5-----5--4--5-----5--4--5----------------------------|
Db|-------------------------------------------------------------|
Ab|-------------------------------------------------------------|
Eb|-------------------------------------------------------------|


FADE [4:02-4:27]
Related for Got It Good tab