Song name
# A B C D E F G H I J K L M N O P Q R S T U V W X Y Z

Jem - Its Amazing tab

                        It's Amazing - Jem
Tabbed by Eric Enberg

This is a fingerstyle interpretation of the song. I hope it's useful to 

you. Thanks to Kengus for transcribing the lyrics. 

Capo @ 3rd fret Key of Cm

Use Chorus as the Intro

Verse

    Am     G    Am       G    Am       G    Am     G
e|---------------------------------------------------------------|
B|-----opt------------1--0----------1--0-------------------------|
G|--2--(2)-0--------2------0------2------0--2---2--0-------------|
D|----2------0----2-------------2-------------2------0-----------|2X
A|--0-----------0-------------0-------------0--------------------|
E|---------3-------------3-------------3-----------3-------------|

Pre-chorus
    Am     G    Am       G    Am       G    Am     G
e|---------------------------------------------------------------|
B|-----opt------------1--0----------1--0-------------------------|
G|--2--(2)-0--------2------0------2------0--2---2--0-------------|
D|----2------0----2-------------2-------------2------0-----------|1X
A|--0-----------0-------------0-------------0--------------------|
E|---------3-------------3-------------3-----------3-------------|


    Am     G    Am       G    Am       G    Am     E7
e|-------------------------------------------------0-------------|
B|-----opt------------1--0----------1--0-----------0-------------|
G|--2--(2)-0--------2------0------2------0--2---2--0-------------|
D|----2------0----2-------------2-------------2------------------|1X
A|--0-----------0-------------0-------------0------2-------------|
E|---------3-------------3-------------3-------------------------|


Chorus 
     Am      Dm       G       C        F          E7     
e|-----------------1----------------0----------------------------|
B|--------1------3---------0------1---------------------0--------|
G|------2------2----------0-----0------------2--------1----------|
D|----2------0----------0------------------3--------0------------| 2X
A|--0-------------------------3----------3--------2--------------|
E|--------------------3----------------1-------------------------|

    E7     /
e|---------------------------------------------------------------|
B|---------------------------------------------------------------|
G|------1-2-1----------------------------------------------------|
D|----0-------3-2-0----------------------------------------------|
A|--2------------------------------------------------------------|
E|---------------------------------------------------------------|


verse 1
Am    G    Am               G
Do it now, you know who you are
    Am              G
You feel it in your heart
           Am             G
And youíre burning it and wishing
    Am    G           Am             G
But first wait, won't get it on your plate
       Am            G           Am         G
Youíre gonna have to work for it harder and harder

pre-chorus
Am      G         Am               G 
And I know cause I've been there before 
Am               G           Am      G    
Knocking on the doors with rejection  (echo)
    Am     G         Am               G
And you'll see cause if it's meant to be
Am             G          Am           E7
Nothing can compare to deserving your dreams

Chorus
Am       Dm      G      C        F         E7       /   /
   It's amazing,  it's amazing,   all that you can do
Am       Dm     G          C
   It's amazing,  makes my heart sing
F          E7     /    /
  Now it's up to you

verse 2
Am       G         Am              G
Patience now, frustrationís in the air
    Am               G
And people who don't care
          Am            G
Well it's gonna get you down
    Am              G                Am             G
And you'll (echo) fall (echo), yes you will hit a wall
    Am                  G                   Am           G
But get back up on your feet, and you'll be stronger and smarter

pre-chorus
   Am  G          Am                 G 
And I know cause I've been there before
Am                G                 Am        G
Knocking down the doors, wonít take no for an answer
    Am     G         Am               G
And you'll see cause if it's meant to be
Am             G         Am           E7
Nothing can compare to deserving your dreams

Chorus
Am       Dm     G        C     F           E7       /   /
   It's amazing,  it's amazing,   all that you can do
Am       Dm     G          C
   It's amazing,  makes my heart sing
F         E7      /   /
  Now it's up to you

Interlude (repeat this x4)
Am      Dm       G      C       F       E7  /  /

Chorus (repeat x2)
Am       Dm     G        C     F           E7       /   /
   It's amazing,  it's amazing,   all that you can do
Am       Dm     G          D
   It's amazing,  makes my heart sing
F         E7      /   /
  Now it's up to you

Outro (repeat x2)
Am      Dm       G      C       F       E7
Hahh-ahh-ahh...............................
Tap to rate this tab
# A B C D E F G H I J K L M N O P Q R S T U V W X Y Z