Guitaretab - guitar tabs
Song name
# A B C D E F G H I J K L M N O P Q R S T U V W X Y Z

Jem - Come On Closer tab

Jem
Come On Closer
Key
x = scratch

E-0-----0----------2---2---------4-----4----4--------------|
B---1-----1---1------2---2---2-----4-----4----4------------| (X2)
G-----2-----2---2------2---2---2-----4-----4---------------|
D----------------------------------------------------------|
A----------------------------------------------------------|
E----------------------------------------------------------|
[ Tab from: http://www.guitaretab.com/j/jem/58369.html ]
Verse
E -------------------------------------------------|
B--------------------------------------------------|
G--------------------------------------------------|
D----8-8xx8-8-xx8-8xx8-8---------------------------|
A----8-8xx8-8-xx8-8xx8-8---------------------------|
E---x6-6xx6-6-xx6-6xx6-6---------------------------|

Then
No Guitar
Verse
Intro
Below riff
Verse repeated
Intro

E ----------------------------------------|
B-----------------------------------------|
G---8-8-2-1-8-8---------------------------|
D---8-8-2-1-8-8---------------------------|
A---6-6-4-3-6-6---------------------------|
E-----------------------------------------|

My contact addy is im_still_alive6@hotmail.com. Please rate this. Rock on.
Related for Come On Closer tab
Advertisement will be closed in 10 seconds