Song name
# A B C D E F G H I J K L M N O P Q R S T U V W X Y Z

Jennette Mccurdy - Homeless Heart tab

Homeless Heart
Written By - Amanda Stott

This song is not written by Jennette McCurdy but everyone seems to know it by that 
I'm unsure of the bridge but I'll tab that later maybe.

E|--------------------------------------------------------|
B|--1--3--1--3--1--3--6--5--1--3--1--3--1-----------------|
G|------------------------------------------------2---0---|
D|--------------------------------------------------------|
A|--------------------------------------------------------|
E|--------------------------------------------------------|

E|--------------------------------------------------------|
B|--1--3--1--3--1--3--6--5--1--3--1--3--1-----------------|
G|------------------------------------------------2---0---|
D|--------------------------------------------------------|
A|--------------------------------------------------------|
E|--------------------------------------------------------|


E|--1--3--5--3--1--0--1--0--3-----5--6--3--1--1------|
B|---------------------------------3-----------------|
G|---------------------------------------------------|
D|---------------------------------------------------|
A|---------------------------------------------------|
E|---------------------------------------------------|

E|--5--6--8--1--0--1--5--6--8--1--0--1--5--6--8--1--3--5--3--5--3--6--6--3--1--|
B|-----------------------------------------------------------------------------|
G|-----------------------------------------------------------------------------|
D|-----------------------------------------------------------------------------|
A|-----------------------------------------------------------------------------|
E|-----------------------------------------------------------------------------|

E|--5--6--8--1--0-----5--3--1--5--3--3--5--3--3--1--1-----|
B|-------------------3------------------------------------|
G|--------------------------------------------------------|
D|--------------------------------------------------------|
A|--------------------------------------------------------|
E|--------------------------------------------------------|


E|--------------------------------------------------------|
B|--1--3--1--3--1--3--6--5--1--3--1--3--1-----------------|
G|------------------------------------------------2---0---|
D|--------------------------------------------------------|
A|--------------------------------------------------------|
E|--------------------------------------------------------|

E|---------1--0--------------------------------------------------|
B|--1--3---------3-1--1--3--6--5--1--3--1--3--1------------------|
G|-----------------------------------------------------2--0------|
D|---------------------------------------------------------------|
A|---------------------------------------------------------------|
E|---------------------------------------------------------------|

E|--1--3--5--3--1--0--1--0--3-----5--6--3--1--1------|
B|---------------------------------3-----------------|
G|---------------------------------------------------|
D|---------------------------------------------------|
A|---------------------------------------------------|
E|---------------------------------------------------|

E|--5--6--8--1--0--1--5--6--8--1--0--1--5--6--8--1--3--5--3--5--3--6--6--3--1--|
B|-----------------------------------------------------------------------------|
G|-----------------------------------------------------------------------------|
D|-----------------------------------------------------------------------------|
A|-----------------------------------------------------------------------------|
E|-----------------------------------------------------------------------------|

E|--5--6--8--1--0-----5--3--1--5--3--3--5--3--3--1--1-----|
B|-------------------3------------------------------------|
G|--------------------------------------------------------|
D|--------------------------------------------------------|
A|--------------------------------------------------------|
E|--------------------------------------------------------|

Bridge - ???

E|--5--6--8--1--0--1--5--6--8--1--0--1--5--6--8--1--3--5--3--5--3--6--6--3--1--|
B|-----------------------------------------------------------------------------|
G|-----------------------------------------------------------------------------|
D|-----------------------------------------------------------------------------|
A|-----------------------------------------------------------------------------|
E|-----------------------------------------------------------------------------|

E|--5--6--8--1--0-----5--3--1--5--3--3--5--3--3--1--1-----|
B|-------------------3------------------------------------|
G|--------------------------------------------------------|
D|--------------------------------------------------------|
A|--------------------------------------------------------|
E|--------------------------------------------------------|


E|--5--6--8--1--0-----5--3--1--5--3--3--5--3--3--1--1-----|
B|-------------------3------------------------------------|
G|--------------------------------------------------------|
D|--------------------------------------------------------|
A|--------------------------------------------------------|
E|--------------------------------------------------------|
Tap to rate this tab
 
# A B C D E F G H I J K L M N O P Q R S T U V W X Y Z