Song name
# A B C D E F G H I J K L M N O P Q R S T U V W X Y Z

Jenni Vartiainen - Ihmisten Edessa tab

Jenni Vartiainen-Ihmisten Edessä
by: AdVisory

intro:

   A               H              C#m            G#m
e|-16-16-----------16-16----------16-16----------14-14-----------------------|
B|-------16-17-14--------16-17-14-------16-17-14-------17-16-14-12-----------|
G|---------------------------------------------------------------------------|
D|---------------------------------------------------------------------------|
A|---------------------------------------------------------------------------|
E|---------------------------------------------------------------------------|


A  
Kadut täyttyy ihmisistä
H                     C#m      G#m
   ne ei tiedä meistä mitään
A
Ootat mua asemalla
H               C#m    G#m
   Ehkä kello antaa    anteeksi minulle
A
Juoksen loppumatkan
     H                      C#m
Sinä  olet kaunis niin kuin aina
      G#m
sinun korkeissa koroissa

   A               H              C#m            G#m
e|-16-16-----------16-16----------16-16----------14-14-----------------------|
B|-------16-17-14--------16-17-14-------16-17-14-------17-16-14-12-----------|
G|---------------------------------------------------------------------------|
D|---------------------------------------------------------------------------|
A|---------------------------------------------------------------------------|
E|---------------------------------------------------------------------------|


        A                  H               C#m
Sanot: "Tämä ilta kävellään käsi kädessä
G#m
ihmisten edessä
A               H                 C#m
Älä sinä muiden katseista välitä
      G#m
sillä me ollaan yhdessä
A                         H                    C#m                   
Ne ei tiedä mitään, ne ei kuulu tähän tarinaan
     G#m
joka harvoille luetaan"

   A               H              C#m            G#m
e|-16-16-----------16-16----------16-16----------14-14-----------------------|
B|-------16-17-14--------16-17-14-------16-17-14-------17-16-14-12-----------|
G|---------------------------------------------------------------------------|
D|---------------------------------------------------------------------------|
A|---------------------------------------------------------------------------|
E|---------------------------------------------------------------------------|

A                     
Kadut täyttyy äänistä
H                    C#m       G#m
  joku huutaa meidän perään
A                    
Olet meistä vahvempi
H             C#m    G#m
  kanssasi en pelkää kaupungin pimeää
A                 H
Ihmisjoukon kohdalla
                  C#m
pidät kiinni kovempaa
   G#m
ja pelkoni katoaa

   A               H              C#m            G#m
e|-16-16-----------16-16----------16-16----------14-14-----------------------|
B|-------16-17-14--------16-17-14-------16-17-14-------17-16-14-12-----------|
G|---------------------------------------------------------------------------|
D|---------------------------------------------------------------------------|
A|---------------------------------------------------------------------------|
E|---------------------------------------------------------------------------|


        A                  H               C#m
Sillä: "Tämä ilta kävellään käsi kädessä
G#m
ihmisten edessä
A               H                 C#m
Älä sinä muiden katseista välitä
      G#m
sillä me ollaan yhdessä
A                         H                    C#m                   
Ne ei tiedä mitään, ne ei kuulu tähän tarinaan
     G#m
joka harvoille luetaan"

   A               H              C#m            G#m
e|-16-16-----------16-16----------16-16----------14-14-----------------------|
B|-------16-17-14--------16-17-14-------16-17-14-------17-16-14-12-----------|
G|---------------------------------------------------------------------------|
D|---------------------------------------------------------------------------|
A|---------------------------------------------------------------------------|
E|---------------------------------------------------------------------------|
					      ...Tämä harvoille luetaan...

   A               H              C#m            G#m
e|-16-16-----------16-16----------16-16----------14-14-----------------------|
B|-------16-17-14--------16-17-14-------16-17-14-------17-16-14-12-----------|
G|---------------------------------------------------------------------------|
D|---------------------------------------------------------------------------|
A|---------------------------------------------------------------------------|
E|---------------------------------------------------------------------------|

A                         H                    C#m                   
Ne ei tiedä mitään, ne ei kuulu tähän tarinaan
     G#m
joka harvoille luetaan


A / H / C#m / G#m
A / H / C#m / G#m

   A               H              C#m            G#m
e|-16-16-----------16-16----------16-16----------14-14-----------------------|
B|-------16-17-14--------16-17-14-------16-17-14-------17-16-14-12----14--12-|
G|---------------------------------------------------------------------------|
D|---------------------------------------------------------------------------|
A|---------------------------------------------------------------------------|
E|---------------------------------------------------------------------------|

Tap to rate this tab
# A B C D E F G H I J K L M N O P Q R S T U V W X Y Z